PrimaNota.ru - самый крупный в мире бесплатный архив песенных текстов, аккордов, табулатур и нот


Sick Puppies - In It For Life - текст песни, таба, видео

Регистрация Запомнить меня
Войти через:  Facebook Google Twitter Vk Yandex Mail.ru

Sick Puppies - In It For Life - текст песни, таба, видео

Печатать
Просмотров: 291
Sick Puppies
In it for Life
Tri-Polar
Tuning: CGCFAD
Key: . palm mute     x scratch note     ~ vibrato     ( ) optional note

     h hammer on     p pull off     / slide up

Intro/Verse 1                                                          x6
|-----------------------------------------------------------------------|
|-----------------------------------------------------------------------|
|-----------------------------------------10-10-10--10-10-10------------|
|-13-13-13--13-13-13-13--13-13--13-13-13--10-10-10--10-10-10--10--10-10-|
|-10-10-10--10-10-10-10--10-10--10-10-10--8--8--8---8--8--8---8---8--8--|
|-10-10-10--10-10-10-10--10-10--10-10-10----------------------8---8--8--|
             Do this part to replace the last five notes on 6th time.
|----------|----------------------|
|----------|----------------------|
|----------|----------------------|
|-12-12-12-|----------------------|
|-10-10-10-|----------------------|
|-10-10-10-|-10-10-10-10-10-10-10-|

Pre-Chorus
|---------------------------------|
|---------------------------------|
|-5-5-5-5-5-5-5-5-----------------|
|-5-5-5-5-5-5-5-5-0-0-0-0-5-5-5-5-|
|-3-3-3-3-3-3-3-3-0-0-0-0-5-5-5-5-|
|-----------------0-0-0-0-5-5-5-5-|
  . . . . . . . . . . . . .
Chorus                                                           x2
|-----------------------------------------------------------------|
|-----------------------------------------------------------------|
|-5-5-5-5-5-5-5-5-----------------------------------------3-3-3-3-|
|-5-5-5-5-5-5-5-5-6-6-6-6-6-6-6-6-3-3-3-3-3-3-3-3-1-1-1-1-3-3-3-3-|
|-3-3-3-3-3-3-3-3-6-6-6-6-6-6-6-6-3-3-3-3-3-3-3-3-1-1-1-1-1-1-1-1-|
|-----------------6-6-6-6-6-6-6-6-3-3-3-3-3-3-3-3-1-1-1-1---------|
                                                                x1
|---------------------------------------------------------------------|
|---------------------------------------------------------------------|
|-5-5-5-5-5-5-5-5---------------------------------3-3-3-3-3-----------|
|-5-5-5-5-5-5-5-5-6-6-6-6-6-6-6-6-1-1-1-1-1-1-1-1-3-3-3-3-3--xxxxxxxx-|
|-3-3-3-3-3-3-3-3-6-6-6-6-6-6-6-6-1-1-1-1-1-1-1-1-1-1-1-1-1--xxxxxxxx-|
|-----------------6-6-6-6-6-6-6-6-1-1-1-1-1-1-1-1------------xxxxxxxx-|

Verse 2
|----------------------------------------------------------------------|
|----------------------------------------------------------------------|
|-----------------------------------------10-10-10--10-10-10-----------|
|-13-13-13--13-13-13-13--13-13--13-13-13--10-10-10--10-10-10-10--10-10-|
|-10-10-10--10-10-10-10--10-10--10-10-10--8--8--8---8--8--8--8---8--8--|
|-10-10-10--10-10-10-10--10-10--10-10-10---------------------8---8--8--|
            Play this to replace the last five notes on the 6th time.
|----------|----------------------|
|----------|----------------------|
|----------|----------------------|
|-12-12-12-|----------------------|
|-10-10-10-|----------------------|
|-10-10-10-|-10-10-10-10-10-10-10-|

Pre-Chorus 2
|---------------------------------|
|---------------------------------|
|-5-5-5-5-5-5-5-5-----------------|
|-5-5-5-5-5-5-5-5-0-0-0-0-5-5-5-5-|
|-3-3-3-3-3-3-3-3-0-0-0-0-5-5-5-5-|
|-----------------0-0-0-0-5-5-5-5-|
  . . . . . . . . . . . . .
Chorus 2                                                         x2
|-----------------------------------------------------------------|
|-----------------------------------------------------------------|
|-5-5-5-5-5-5-5-5-----------------------------------------3-3-3-3-|
|-5-5-5-5-5-5-5-5-6-6-6-6-6-6-6-6-3-3-3-3-3-3-3-3-1-1-1-1-3-3-3-3-|
|-3-3-3-3-3-3-3-3-6-6-6-6-6-6-6-6-3-3-3-3-3-3-3-3-1-1-1-1-1-1-1-1-|
|-----------------6-6-6-6-6-6-6-6-3-3-3-3-3-3-3-3-1-1-1-1---------|

|-----------------------------------------------------------------|
|-----------------------------------------------------------------|
|-5-5-5-5-5-5-5-5---------------------------------3-3-3-3-3-3-3-3-|
|-5-5-5-5-5-5-5-5-6-6-6-6-6-6-6-6-1-1-1-1-1-1-1-1-3-3-3-3-3-3-3-3-|
|-3-3-3-3-3-3-3-3-6-6-6-6-6-6-6-6-1-1-1-1-1-1-1-1-1-1-1-1-1-1-1-1-|
|-----------------6-6-6-6-6-6-6-6-1-1-1-1-1-1-1-1-----------------|

Bridge
|-----------------------------------|
|-----------------------------------|
|-5-5-5----5----5-5-5-5-5-5-5-5-5-5-|
|-5-5-5----5----5-5-5-5-5-5-5-5-5-5-|
|-3-3-3-3--3-3--3-3-3-3-3-3-3-3-3-3-|
|-----------------------------------|
        .  . .  . . . . . 
After Shim sings, play this.
|-------------------------------------------------------------------------|
|----------------------------------------------------3~(3)3h4-3h4-3h4p3---|
|-5-5-5~(5)5-5-4~(4)------------------5-5-5~(5)-5-5---------------------4-|
|-5-5------5-5--------5h6-5h6-5h6p5p3-5-5-------5-5-----------------------|
|-3-3------3-3------------------------3-3-------3-3-----------------------|
|-------------------------------------------------------------------------|

Solo
|-6-6-6-8-8-6-6--6------8-8-6-6--------8-8-6-6------------------|
|--------------------------------8-8-8----------8h9p8-6--8-6----|
|-------------------8-8--------------------------------------8--|
|---------------------------------------------------------------|
|---------------------------------------------------------------|
|---------------------------------------------------------------|

Chorus 3                                                         x2
|-----------------------------------------------------------------|
|-----------------------------------------------------------------|
|-5-5-5-5-5-5-5-5-----------------------------------------3-3-3-3-|
|-5-5-5-5-5-5-5-5-6-6-6-6-6-6-6-6-3-3-3-3-3-3-3-3-1-1-1-1-3-3-3-3-|
|-3-3-3-3-3-3-3-3-6-6-6-6-6-6-6-6-3-3-3-3-3-3-3-3-1-1-1-1-1-1-1-1-|
|-----------------6-6-6-6-6-6-6-6-3-3-3-3-3-3-3-3-1-1-1-1---------|

|-----------------------------------------------------------------|
|-----------------------------------------------------------------|
|-5-5-5-5-5-5-5-5---------------------------------3-3-3-3-3-3-3-3-|
|-5-5-5-5-5-5-5-5-6-6-6-6-6-6-6-6-1-1-1-1-1-1-1-1-3-3-3-3-3-3-3-3-|
|-3-3-3-3-3-3-3-3-6-6-6-6-6-6-6-6-1-1-1-1-1-1-1-1-1-1-1-1-1-1-1-1-|
|-----------------6-6-6-6-6-6-6-6-1-1-1-1-1-1-1-1-----------------|

Outro                                                                x2
|---------------------------------------------------------------------|
|---------------------------------------------------------------------|
|---------------------------------------------------------------------|
|-10-10-10--10-10-10-10--10-10--10-10-10--6-6-6--6-6-6--3--3-3--3-3-3-|
|-10-10-10--10-10-10-10--10-10--10-10-10--6-6-6--6-6-6--3--3-3--3-3-3-|
|-10-10-10--10-10-10-10--10-10--10-10-10--6-6-6--6-6-6--3--3-3--3-3-3-|
                                           x2
|-------------------------------------------|--------| End of the song is 
|-------------------------------------------|--------| finished w/ Emma and
|----5---5---5---5---5----7---7---8---8---3-|--------| Mark.
|----5---5---5---5---5----7---7---8---8---3-|--------|
|-33-3-3-3-3-3-3-3-3-3-55-5-5-5-5-6-6-6-6-1-|-/3~~~~-|
|-------------------------------------------|--------|
  ..   .   .   .   .   ..   .   .   .   .

Have fun! Please rate and comment!
Добавлено: 04.07.2012
Другие материалы по этой песне:

Страница создана 25.04.2012
http://primanota.ru/sick-puppies/in-it-for-life-chords.htm
Привет, Гость.
Предлагаем пройти революционный курс по гитаре.
Подарок от PrimaNota.Ru, забирай!