PrimaNota.ru - самый крупный в мире бесплатный архив песенных текстов, аккордов, табулатур и нот


Sick Of Sarah - Kick Back - таба, видео

Регистрация Запомнить меня
Войти через:  Facebook Google Twitter Vk Yandex Mail.ru

Sick Of Sarah - Kick Back - таба, видео

Печатать
Просмотров: 147
-------------------------------------------------------------------------------
                             KICK BACK - Sick Of Sarah
-------------------------------------------------------------------------------
Tabbed by: Feeb
Email: stockholm_syndrome@live.com.au

Tuning: Drop D Tuning

Intro
e|---------------------------------------------------------------------------|
B|---------------------------------------------------------------------------|
G|-----6h7------6h7-------6h7------6h7-------6-6-----6-6------6-6-----6------|
D|---------------------------------------------------------------------------| x 2
A|-99-------99---------55------55-------77------77-------77------77-------7--|
D|-99-------99---------55------55-------77------77-------77------77-------7--|

Verse
e|---------------------------------------------------------------------------|
B|---------------------------------------------------------------------------|
G|-----6h7------6h7-------6h7------6h7-------6-6-----6-6------6-6-----6------|
D|---------------------------------------------------------------------------| x 4
A|-99-------99---------55------55-------77------77-------77------77-------7--|
D|-99-------99---------55------55-------77------77-------77------77-------7--|

e|---------------------------------------------------------------------------|
B|--10-10-8-8-7-7-8----------------------------------------------------------| x 2
G|---------------------------------------------------------------------------|
D|---------------------------------------------------------------------------|
A|---------------------------------------------------------------------------|
D|---------------------------------------------------------------------------|

Chorus
e|---------------------------------------------------------------------------|
B|---------------------------------------------------------------------------|
G|-444444/66666666/77777777/x12/11/9/7---------------------------------------|
D|-444444/xxxxxxxx/xxxxxxxx/xxx/xx/x/x--------[continue below]---------------|
A|-222222/44444444/55555555/x10/-9/7/5---------------------------------------|
D|---------------------------------------------------------------------------|

e|---------------------------------------------------------------------------|
B|---------------------------------------------------------------------------|
G|-444444/6666/7777/22222222----------4~-------------------------------------|
D|-444444/xxxx/xxxx/22222222----------4~-------------------------------------|
A|-222222/4444/5555/00000000----------2~-------------------------------------|
D|---------------------------------------------------------------------------|

Bridge
e|---------------------------------------------------------------------------|
B|---------------------------------------------------------------------------|
G|---------------------------------------------------------------------------|
D|-4444444444444444-----2222222222222222-------------------------------------|
A|-2222222222222222-----0000000000000000-------------------------------------|
D|---------------------------------------------------------------------------|
   ................     ................
e|---------------------------------------------------------------------------|
B|---------------------------------------------------------------------------|
G|---------------------------------------------------------------------------|
D|---0--4~-------------------------------------------------------------------|
A|-2-------------------------------------------------------------------------|
D|---------------------------------------------------------------------------|


************************************

| /   slide up
| \   slide down
| h   hammer-on
| p   pull-off
| ~   vibrato
| +   harmonic
| x   Mute note
| b   Bend
| pb  Pre-bend
| br  Bend release
| pbr Pre-bend release
| brb Bend release bend

************************************
Добавлено: 31.08.2013
Другие материалы по этой песне:
  • Аккорды и текст

Страница создана 31.08.2013
http://primanota.ru/sick-of-sarah/kick-back-chords.htm
Привет, Гость.
Предлагаем пройти революционный курс по гитаре.
Подарок от PrimaNota.Ru, забирай!