PrimaNota.ru - самый крупный в мире бесплатный архив песенных текстов, аккордов, табулатур и нот


Sick Of It All - Good Lookin Out - текст песни, таба, бас-таба, видео

Регистрация Запомнить меня
Войти через:  Facebook Google Twitter Vk Yandex Mail.ru

Sick Of It All - Good Lookin Out - текст песни, таба, бас-таба, видео

Печатать
Просмотров: 121
Авторы: Craig Setari, Armand Majidi, Pete Koller, Lou Koller

------------------------------------------------------------------------------- 
                    GOOD LOOKIN' OUT - Sick Of It All 
------------------------------------------------------------------------------- 

By: koen jans ° koenXjans@village.uunet.be 

Intro 
e|-----------------------------| 
B|-----------------------------| 
G|-----------------------------| 
D|-----------------------------| 
A|---4-----4-------4-----4-----| 
E|---2--0--2-------2--0--2-----| 

Verse x2 
e|------------------------------------|--------------------------------| 
B|------------------------------------|--------------------------------| 
G|-------------------6666666----------|--------------------------------| 
D|----------7-7------xxxxxxx-7777777--|---------7-7-----4-4-4-4-4-4-4--| 
A|--4---4---5-5--7---4444444-5555555--|--4---4--5-5--7--2-2-2-2-2-2-2--| 
E|--2-0-2--------5--------------------|--2-0-2-------5-----------------| 
thinking back.. woooooh hoooooo wanna.. despair washes.. 

Chorus -part1- x2 
e|-----------------------------------------------------| 
B|-----------------------------------------------------| 
G|-----6-6---------------------------------------------| 
D|-----x-x---------9-9---7-7---------------------------| 
A|-----4-4---7-7---7-7---5-5---7-7-7---7-7-7-----------| 
E|-----------5-5---------------5-5-5---5-5-5-----------| 
you're not in this all alone.. 
the answers right before your eyes.. 

Chorus -part2- 
e|---------------------------------|-----------------------------------| 
B|---------------------------------|-----------------------------------| 
G|--------7-7---4-4---------7-7--9-|-----------------------------------| 
D|--------5-5---2-2..-------5-5--7-|---9-9-----------7-7---------------| 
A|--4-4----------------4-4---------|---7-7-----------5-5---7-7---7-7-7-| 
E|--2-2..--------------2-2..-------|-----------------------5-5---5-5-5-| 
it's hard to open just try.. TRUE FRIENDS WILL ALWAYS BE THERE!! 

repeat verse 
repeat chorus 

Break 
e|--Pm-----Pm-------Pm-----Pm-------Pm-----Pm-----Pm-----Pm-----------| 
B|--------------------------------------------------------------------| 
G|--------------------------------------------------------------------| 
D|--99-9---99-9-----77-7---77-7---------------------------------------| 
A|--77-7---77-7-----55-5---55-5-----77-7---77-7---77-7---77-7---------| 
E|----------------------------------55-5---55-5---55-5---55-5---------| 
There's no doubt 
Good Lookin' out!! 
When life's not fair 

Repeat 'TRUE FRIENDS WILL ALWAYS BE THERE-part'; end on 5's 

Fuckin' GO! 

-------------------------------------------------------------------------------
Добавлено: 30.06.2012
Другие материалы по этой песне:

Страница создана 27.02.2012
http://primanota.ru/sick-of-it-all/good-lookin-out-chords.htm
Привет, Гость.
Предлагаем пройти революционный курс по гитаре.
Подарок от PrimaNota.Ru, забирай!