PrimaNota.ru - самый крупный в мире бесплатный архив песенных текстов, аккордов, табулатур и нот


Sianvar - Substance Sequence - таба, видео

Регистрация Запомнить меня
Войти через:  Facebook Google Twitter Vk Yandex Mail.ru

Sianvar - Substance Sequence - таба, видео

Печатать
Просмотров: 29
Авторы: Sianvar

Tabbed by: Joshua Garcia (joshuag523@aol.com)

Tabs for the song: Substance Sequence by Sianvar
Please rate and let me know if you have any corrections. Thank you.


Tabbed with help from some live videos.


Tuning: Standard (E A D G B E)


Intro
Guitar 1:
E||-------------------------------------------------------------------|
B||--------------8---------------8---------------8---------------8----|
G||------------7---7-----------7---7-----------7---7-----------7---7--|
D||-------10--------------10--------------10--------------10----------| x2
A||--11--------------11--------------11--------------11---------------|
E||-------------------------------------------------------------------|



Verse
Guitar 1:
E||---------------------------------------------------------------------------------------|
B||---------------------------------------------------------------------------------------|
G||------------2-------------5-------------5-------------5-------------5-------------5----|
D||----------0---0---------3---3---------3---3---------3---3---------3---3---------3---3--| x2
A||------3-------------4-------------4-------------4-------------4-------------4----------|
E||--1-------------4-------------4-------------4-------------4-------------4--------------|


Guitar 2 (Tremolo Picking):
E||----------------------|---------------------------|
B||--18--------14----13--|--16------13----11----13~--|
G||----------------------|---------------------------|
D||----------------------|---------------------------|
A||----------------------|---------------------------|
E||----------------------|---------------------------|



Guitar 1:
E||---------------------------------------------------------------------------------------|
B||---------------------------------------------------------------------------------------|
G||------------2-------------5-------------5-------------5-------------5-------------5----|
D||----------0---0---------3---3---------3---3---------3---3---------3---3---------3---3--|
A||------3-------------4-------------4-------------4-------------4-------------4----------|
E||--1-------------4-------------4-------------4-------------4-------------4--------------|
     .   .   . . . .   .   . . . .   .   . . . .   .   . . . .   .   . . .


E||---------------------------------------------------------------------------------------|
B||---------------------------------------------------------------------------------------|
G||------------2-------------5-------------5-------------6-------------5-------------5----|
D||----------0---0---------3---3---------3---3---------4---4---------3---3---------3---3--|
A||------3-------------4-------------4-------------5-------------4-------------4----------|
E||--1-------------4-------------4-------------5-------------4-------------4--------------|


Guitar 2 (Tremolo Picking):
E||--------------------------------------|
B||--16------18------11------13----------|
G||----------------------------------10--|
D||--------------------------------------|
A||--------------------------------------|
E||--------------------------------------|



Chorus
Guitar 1:
E||-------------------------------------------------------|
B||-------------------------------------------------------|
G||--2----2----2----2----5~-------5----5----5----5----5~--|
D||--0----0----0----0----3~-------3----3----3----3----3~--| x4
A||--3----3----3----3----4~-------4----4----4----4----4~--|
E||--1----1----1----1----4~-------4----4----4----4----4~--|


Guitar 2 (Tremolo Picking):
E||--------------15---------------|--------------20-----18----16--|
B||--------8------------16----18--|--------8----------------------|
G||--5----------------------------|--5----------------------------|
D||-------------------------------|-------------------------------| x2
A||-------------------------------|-------------------------------|
E||-------------------------------|-------------------------------|



Bridge
Guitar 1:
E||-------------------------------------------|------------------------------------------|
B||------------------8-8-----------------8-8--|--8-----8-----8--8-----11----11----11-11--|
G||--------5-5-5---------------5-5-5----------|--8-----8-----8--8-----10----10----10-10--|
D||--------------6-6-----------------6-6------|--10----10----10-10----11----11----11-11--| x4
A||--8-8-8---------------8-8-8----------------|------------------------------------------|
E||-------------------------------------------|------------------------------------------|
     . . . . . . . .     . . . . . . . .


Guitar 2:
E||------------------------------------------------------|
B||--8-4---4------4h8p4----13-9----9-------9h11----9h11--|
G||------5------5-------5-------10------10------10-------|
D||------------------------------------------------------| x4
A||------------------------------------------------------|
E||------------------------------------------------------|
         .      .       .       .       .       .


Guitar 1:
     T        T          T       T             T      T      T        T            T
E||--15-10h11-15-11p10p8-------------------------------------------------------------------------|
B||----------------------15-11p9-15-9p8h9--------------------------------------------------------|
G||---------------------------------------10p8-13-8\7-12-7h8-12-8p7\5-12-7p5h7-------------------|
D||----------------------------------------------------------------------------8p6-12-6-5--------|
A||---------------------------------------------------------------------------------------6-5-6--|
E||----------------------------------------------------------------------------------------------|



Pre-Verse
Guitar 1:
E||---------------------------------------------------------------|
B||---------------------------------------------------------------|
G||---------------------------------------------------------------|
D||--6-6-6-6-6-6-10-10-10-10-10-10-6-6-6-6-6-6-10-10-10-10-10-10--|
A||--6-6-6-6-6-6-10-10-10-10-10-10-6-6-6-6-6-6-10-10-10-10-10-10--|
E||--4-4-4-4-4-4-8--8--8--8--8--8--4-4-4-4-4-4-8--8--8--8--8--8---|


E||---------------------------------------------------|
B||---------------------------------------------------|
G||---------------------------------------------------|
D||--3-3-3-3-3-3-6-6-6-6-6-6-3-3-3-3-3-3-6-6-6-6-6-6--| x2
A||--3-3-3-3-3-3-4-4-4-4-4-4-3-3-3-3-3-3-4-4-4-4-4-4--|
E||--1-1-1-1-1-1-4-4-4-4-4-4-1-1-1-1-1-1-4-4-4-4-4-4--|


Guitar 2:
E||--------------------------13---10-------------------------13---10--|
B||--13-----------11-13--------------13-----------11-13---------------|
G||-------10-13-----------10--------------10-13-----------10----------|
D||-------------------------------------------------------------------|
A||-------------------------------------------------------------------|
E||-------------------------------------------------------------------|


B||--------------------------------------------------15---16-15---16--|
G||--13---14-13---14-13---14-13---14-13-----------11------------------|
D||---------------------------------------10-13-----------------------|
A||-------------------------------------------------------------------|
E||-------------------------------------------------------------------|
E||-------------------------------------------------------------------|


E||--------------------------13---10-------------------------13---10--|
B||--13-----------11-13--------------13-----------11-13---------------|
G||-------10-13-----------10--------------10-13-----------10----------|
D||-------------------------------------------------------------------|
A||-------------------------------------------------------------------|
E||-------------------------------------------------------------------|


B||--------------------------------------------------15---16-15---16--|
G||--13---14-13---14-13---14-13---14-13---14-13---14------------------|
D||-------------------------------------------------------------------|
A||-------------------------------------------------------------------|
E||-------------------------------------------------------------------|
E||-------------------------------------------------------------------|



Interlude
Guitar 1:
E||----------------------------------|----------------------------------|
B||----------------------------------|----------------------------------|
G||------------0-------------0-------|------------0-------------0-------|
D||----------8---8---------7---7-----|----------8---8---------7---7-----|
A||------6-------------5---------5~--|------6-------------5---------5~--|
E||--8-------------6-----------------|--8-------------6-----------------|



Verse
Guitar 1:
E||---------------------------------------------------------------------------------------|
B||---------------------------------------------------------------------------------------|
G||------------2-------------5-------------5-------------5-------------5-------------5----|
D||----------0---0---------3---3---------3---3---------3---3---------3---3---------3---3--| x6
A||------3-------------4-------------4-------------4-------------4-------------4----------|
E||--1-------------4-------------4-------------4-------------4-------------4--------------|


E||-----------------------------------------------------------------------------|
B||-----------------------------------------------------------------------------|
G||------------2-------------5-------------5-------------5-------------5----2~--|
D||----------0---0---------3---3---------3---3---------3---3---------3---3--0~--|
A||------3-------------4-------------4-------------4-------------4----------3~--|
E||--1-------------4-------------4-------------4-------------4--------------1~--|


Guitar 2 (Tremolo Picking):
E||----------------------|--------------------------|--------------------------|
B||--18--------14----13--|--16------13----11----13--|--16---18---11---13-------|
G||----------------------|--------------------------|----------------------10--|
D||----------------------|--------------------------|--------------------------| x2
A||----------------------|--------------------------|--------------------------|
E||----------------------|--------------------------|--------------------------|



Chorus
Guitar 1:
E||-------------------------------------------------------|
B||-------------------------------------------------------|
G||--2----2----2----2----5~-------5----5----5----5----5~--|
D||--0----0----0----0----3~-------3----3----3----3----3~--|
A||--3----3----3----3----4~-------4----4----4----4----4~--|
E||--1----1----1----1----4~-------4----4----4----4----4~--|


E||-------------------------------------------------------|
B||-------------------------------------------------------|
G||--8----8----8----8----7~-------7----7----7----7----7~--|
D||--x----x----x----x----x--------x----x----x----x----x---| x2
A||--6----6----6----6----5~-------5----5----5----5----5~--|
E||--8----8----8----8----6~-------6----6----6----6----6~--|


E||--------------------------------------------------------------------------------|
B||--------------------------------------------------------------------------------|
G||--2----2----2----2----5----5----5----5----5----5----5----5----5----5----5----5--|
D||--0----0----0----0----3----3----3----3----3----3----3----3----3----3----3----3--|
A||--3----3----3----3----4----4----4----4----4----4----4----4----4----4----4----4--|
E||--1----1----1----1----4----4----4----4----4----4----4----4----4----4----4----4--|


E||--------------------------------------------------------------------------------|
B||--------------------------------------------------------------------------------|
G||--8----8----8----8----7----7----7----7----7----7----7----7----7----7----7----7--|
D||--x----x----x----x----x----x----x----x----x----x----x----x----x----x----x----x--| x2
A||--6----6----6----6----5----5----5----5----5----5----5----5----5----5----5----5--|
E||--8----8----8----8----6----6----6----6----6----6----6----6----6----6----6----6--|


Guitar 2 (Tremolo Picking):
E||--------------15---------------|--6--8----------------------|
B||--------8------------16----18--|--------8-----6--9--8-------|
G||--5----------------------------|-------------------------5--|
D||-------------------------------|----------------------------|
A||-------------------------------|----------------------------|
E||-------------------------------|----------------------------|


E||--------------20-----18-----6--|--18--20---------------------------------|
B||--------8----------------------|----------20-----18-21-20-----16-----18--|
G||--5----------------------------|-----------------------------------------|
D||-------------------------------|-----------------------------------------| x2
A||-------------------------------|-----------------------------------------|
E|--------------------------------|-----------------------------------------|



Outro
Guitar 1:
E||-------------------------------------------|
B||------------------8-8-----------------8-8--|
G||--------5-5-5---------------5-5-5----------|
D||--------------6-6-----------------6-6------| x2
A||--8-8-8---------------8-8-8----------------|
E||-------------------------------------------|
     . . . . . . . .     . . . . . . . .


E||-----------------------------------------------------------------------------------|
B||--13---13---13-13-13---13---13-13-13---13---13-13-13---13---13-13-13---13---13-13--|
G||--12---12---12-12-13---13---13-13-13---13---13-13-13---13---13-13-13---13---13-13--|
D||--13---13---13-13-11---11---11-11-11---11---11-11-11---11---11-11-11---11---11-11--| x2
A||-----------------------------------------------------------------------------------|
E||-----------------------------------------------------------------------------------|


E||---------------------------------|
B||--13------13------13--------13~--|
G||--13------13------13--------13~--|
D||--11------11------11--------11~--|
A||---------------------------------|
E||---------------------------------|


Guitar 2 (Tremolo Picking):
E||--11----13---------15--11---------------|--11----13----20-----------------|
B||---------------13-----------14--13--11--|-------------------20---16---18--|
G||----------------------------------------|---------------------------------|
D||----------------------------------------|---------------------------------|
A||----------------------------------------|---------------------------------|
E||----------------------------------------|---------------------------------|

E||---------------------------------|
B||--18------18------18--------18~--|
G||---------------------------------|
D||---------------------------------|
A||---------------------------------|
E||---------------------------------|




Tablature Legend
----------------
 h   hammer-on
 p   pull-off
 b   bend
 pb  pre-bend
 r   release bend
 ~   hold / vibrato
 .   palm mute
 /   slide up
 \   slide down
 *   pinch harmonic
 '   natural harmonic
 x   mute note
 T   tap
Добавлено: 01.01.2016
Вам также может быть интересно:
Другие материалы по этой песне:
  • Аккорды и текст

Страница создана 01.01.2016
http://primanota.ru/sianvar/substance-sequence-chords.htm
Привет, Гость.
Предлагаем пройти революционный курс по гитаре.
Подарок от PrimaNota.Ru, забирай!