PrimaNota.ru - самый крупный в мире бесплатный архив песенных текстов, аккордов, табулатур и нот


Siakol - Kwarto - таба, видео

Регистрация Запомнить меня
Войти через:  Facebook Google Twitter Vk Yandex Mail.ru

Siakol - Kwarto - таба, видео

Печатать
Просмотров: 132
song title:	KWARTO
band/artist:	siakol
tuning:		standard
tabbed by:	AHMED U. TADTAGAN
		Notre Dame Inoversity
		[when reggae meets emo]

	*maganda tong isang toh. paksulan ang tirada.
	*tangkilikin natin ang sariling atin (OPM).
	
	
[intro(bass)]
*Note: echo to the maximum toh. pero it can play also with a repeated strums.

Chords: D5-Bb5-F5-C5

riff1
e |--------:--------:--------:-----------|
a |---3----:--------:---6----:-----------|
G |---2----:---3----:---5----:---5-------| echo system to, pero pwede ring
D |--------:---3----:--------:---5-------| paulit-ulit na down-stroke.
A |--------:--------:--------:-----------| **ulit-uliting lng toh**
E |--------:--------:--------:-----------|

[verse1]
sinasariwa ang nakaraan
nabubulok sa kwarto kong puno ng usok
walang problema
nakakatok, dito ang lungkot ay

riff2
e |-----------7-5-------7-6----------------------------------|
a |-------------------------------6-8(bent)-10-8-6-8---------|
G |-------5h7-------5h7-------5h7----------------------------|
D |----------------------------------------------------------|
A |----------------------------------------------------------|
E |----------------------------------------------------------|
..di papasok   haaahh.  hahhh..      lungkot ay di papa..


e |-----------7-5-------7-6----------------------------------|
a |-------------------------------6-8(bent)--8-6/8-----------|
G |-------5h7-------5h7-------5h7----------------------------|
D |----------------------------------------------------------|
A |----------------------------------------------------------|
E |----------------------------------------------------------|
     ..sok               haaahhahhh.. hahhhh...


ultin lang ung riff1

[verse2]
pinagmamasdan ang mga ala-ala
nahalungkat, sa kwarto kong sobra ang kalat
walang maingay, nakatapat
dito napapanatag..


e |-----------7-5-------7-6----------------------------------|
a |-------------------------------6-8(bent)-10-8-6-8---------|
G |-------5h7-------5h7-------5h7----------------------------|
D |----------------------------------------------------------|
A |----------------------------------------------------------|
E |----------------------------------------------------------|
..ang lahat   haaahh.  hahhh..      napapanatag ang la..


e |-----------7-5-------7-6----------------------------------|
a |-------------------------------6-8(bent)--8-6/8-----------|
G |-------5h7-------5h7-------5h7----------------------------|
D |----------------------------------------------------------|
A |----------------------------------------------------------|
E |----------------------------------------------------------|
     ..hat               haaahhahhh.. hahhhh...


[CHORUS]
chords: D5       Bb5         F5         C5
e |---------------------------------------------------|
a |---------------------------------------------------|
G |---------------------------------------------------|
D |--77777777-----------------------55555555----------|
A |--55555555--88888888--333333333--33333333----------|
E |------------66666666--111111111--------------------|

bawal! bawal ang nakasimangot
dito sa apat na sulok ng aking kwarto (2x)


[verse3]
nagkukulong sa katahimikan
nalalasap, sa ibang lugar ay di mahanap
walang pag-asa na magaganap
dito mas masarap mangarap..

[ulitin lang ung riff2]

ahhaahh.. dito mas masarap mangarap. ahaahhaha..

[SOLO]
e |-----------------1-------3p1-3--1-3-1-3-3p1-1-------------|
a |--3p1-3--1-3-1-3------------------------------------------|
G |----------------------------------------------------------|
D |----------------------------------------------------------|
A |----------------------------------------------------------|
E |----------------------------------------------------------|

e |--5p3-5--3-5-3-5p3-3-----3p1-3--1-3-1-3-3p1-1-------------|
a |----------------------------------------------------------|
G |----------------------------------------------------------|
D |----------------------------------------------------------|
A |----------------------------------------------------------|
E |----------------------------------------------------------|


[repeat verse1]


  ----------------------------------------------
 |*comments? suggestions? mhedlux04@yahoo.com   | 
 | 			  09065097530	        |
  ----------------------------------------------
Добавлено: 10.04.2012
Другие материалы по этой песне:
  • Аккорды и текст

Страница создана 10.04.2012
http://primanota.ru/siakol/kwarto-chords.htm
Привет, Гость.
Предлагаем пройти революционный курс по гитаре.
Подарок от PrimaNota.Ru, забирай!