PrimaNota.ru - самый крупный в мире бесплатный архив песенных текстов, аккордов, табулатур и нот


Sia - The Fight - таба, видео

Регистрация Запомнить меня
Войти через:  Facebook Google Twitter Vk Yandex Mail.ru

Sia - The Fight - таба, видео

Печатать
Просмотров: 205
Авторы: Sia, Dan Carey

-------------------------------------------------------------------------------
                             The Fight – Sia
-------------------------------------------------------------------------------
Tabbed by:mpsya
Email:marnykino@gmail.com

Tuning:
EADGBe

Verse:

Part 1 – Palm muted. Repeat a lot (the bits on the G and A strings get swapped around 
occasionally)
e|---------------------------------------------------------------------------|
B|---------------------------------------------------------------------------|
G|----------------x-x-6-6-4-6-4----------------------------------------------|
D|-x-x-6-6-4-6-4----------------- x-x-6-6-4-6-4------------------------------|
A|-----------------------------------------------x-x-4-4-2-4-2---------------|
E|---------------------------------------------------------------------------|

Part 2 -
e|-----7-----------11----------10----------9---------------------------------|
B|---9---9------12----12-----10---10----10---9-------------------------------|
G|-9--------/11-----------11----------9--------------------------------------|
D|---------------------------------------------------------------------------|
A|---------------------------------------------------------------------------|
E|---------------------------------------------------------------------------|


Chorus:

e|-----7-----------11----------10----------------17--------------------------|
B|---9---9------12----12-----10---10------14---------------------------------|
G|-9--------/11-----------11----------/14----/18-----------------------------|
D|---------------------------------------------------------------------------|
A|---------------------------------------------------------------------------|
E|---------------------------------------------------------------------------|

e|---------------------------------------------------------------------------|
B|---------------------------------------------------------------------------|
G|-x-x-x-x-4--x-x-9-9--x-x-x-x-4--x-x-9-11p9---------------------------------|
D|-x-x-x-x-4--x-x-9-9--x-x-x-x-4--x-x-9-9--9---------------------------------|
A|---------------------------------------------------------------------------|
E|---------------------------------------------------------------------------|

e|-----7-----------11----------10----------------17--------------------------|
B|---9---9------12----12-----10---10------14---------------------------------|
G|-9--------/11-----------11----------/14----/18-----------------------------|
D|---------------------------------------------------------------------------|
A|---------------------------------------------------------------------------|
E|---------------------------------------------------------------------------|


e|-16-16-16-16-16-16-x-x-16-16--16-16-16-16-16-16-16-16-14-12----------------|
B|-16-16-16-16-16-16-x-x-17-17--16-16-16-16-16-17-17-16-14-12----------------|
G|---------------------------------------------------------------------------|
D|---------------------------------------------------------------------------|
A|---------------------------------------------------------------------------|
E|---------------------------------------------------------------------------|

 
Middle-8:
Not much guitar going on here but the bass and piano play the notes below. If you want
to play it as chords it's just – C#m, F, E, A, C#m, B, F# four times.

e|---------------------------------------------------------------------------|
B|---------------------------------------------------------------------------|
G|---------------------------------------------------------------------------|
D|---------------------------------------------------------------------------|
A|-4--9-7----4-2------Repeat x 4---------------------------------------------|
E|--------5------2-----------------------------------------------------------|
Добавлено: 07.11.2013
Другие материалы по этой песне:
  • Аккорды и текст

Страница создана 30.09.2013
http://primanota.ru/sia/the-fight-chords.htm
Привет, Гость.
Предлагаем пройти революционный курс по гитаре.
Подарок от PrimaNota.Ru, забирай!