PrimaNota.ru - самый крупный в мире бесплатный архив песенных текстов, аккордов, табулатур и нот


Shudder To Think - Shake Your Halo Down - текст песни, бас-таба, видео

Регистрация Запомнить меня
Войти через:  Facebook Google Twitter Vk Yandex Mail.ru

Shudder To Think - Shake Your Halo Down - текст песни, бас-таба, видео

Печатать
Просмотров: 97
Уроки эстрадного вокала в Санкт-Петербурге
Artist - Shudder to Think
Album - Get Your Goat
Song - Shake Your Halo Down
Year - 1992
Bassist - Stuart Hill
Tabber - Alowishus

This song has slightly tricky timing in the verse. You really need to listen to the song 
to understand the music here.

Intro - Hi-Hat opening

Verse
Dip a cloth in a pool of what....Just B over and over then...
G|----------------------------------------|
D|----------------------------------------|
A|-2-2---2-2---2-2---2-2-2-2-2---2-2--2-2-|
E|----------------------------------------|


...clean your horses hide with it..... it changes to this then repeats above.
G|---------------------------|
D|---------------------------|
A|--5-5----------------------|
E|-------0-2-2----0-2-2--5-5-|

These both go together - if you listen to the song you will understand

It does this three times - Stick a fish in a tattoo gun etc.

Chorus

Shake your halo down..... number here is approx
G|---------------------------------------------|
D|---------------------------------------------|
A|----------------2-2-2-2-2-2-2--0-0-0-0-0-0-0-| - or 5th fret on E
E|-0-0-0-0-0-0-0-------------------------------|

G|----------------6-6-6-6-6-6-6-|
D|------------------------------|
A|-4-4-4-4-4-4-4----------------|
E|------------------------------|

It does this a few times then goes back to the verse.

Then chorus again. THEN

Bridge

This is not easy to work out as it's essentially just noise. The best i can describe it 
as is:

1:43 the bridge starts - no bass
1:50 bass comes in and it's runs up and down the neck i.e.

G|-------------------------------------------------|
D|-------------------------------------------------|
A|-1-2-3-4-5-6-7-8-9-10-11-12-11-10-9-8-7-6-5-etc.-|
E|-------------------------------------------------|

Do this pretty fast - on A string. Maybe just sliding from 4/16 and back.

After you do this a few times it starts to slow down at 1:55 to:

G|--------------------|
D|--------------------|
A|-4-4--3-3--2-2--1-1-|
E|--------------------|

It may start ascending up the neck towards Bb a bit further down - maybe starts at 7th 
fret moving down to 1st - i am not sure.

The bass stops altogether and guitar chords start up.

THEN FINALLY - Outro

G|----------------------------------------|
D|----------------------------------------|
A|-2-2---2-2---2-2---2-2-2-2-2---2-2--2-2-|
E|----------------------------------------|

G|------------------|
D|------------------|
A|--5-5-------------|
E|-------0-2-2---2-2|

That's it!
Добавлено: 08.07.2013
Другие материалы по этой песне:
  • Аккорды и текст

Страница создана 28.05.2012
http://primanota.ru/shudder-to-think/shake-your-halo-down-chords.htm
Привет, Гость.
Предлагаем пройти революционный курс по гитаре.
Подарок от PrimaNota.Ru, забирай!