PrimaNota.ru - самый крупный в мире бесплатный архив песенных текстов, аккордов, табулатур и нот


Shturcite - Kletva - аккорды и текст, таба, видео

Регистрация Запомнить меня
Войти через:  Facebook Google Twitter Vk Yandex Mail.ru

Shturcite - Kletva - аккорды и текст, таба, видео

Печатать
Просмотров: 143
Уроки эстрадного вокала в Санкт-Петербурге
Kletva
Shturcite
 
      D         Am            G          Em         D        Am   G    Em 
E||-----------------0-----|-----------0---0-------|-------------|---------| 
H||---3---3---3-----------|---3---3---0---0-------|-------------|---------| 
G||---2---2---2---2-------|---4---4---0---0-------|-------------|---------| 
D||---4-0-4-0-2-2---------|---5-0-5-0---2---2-----|-------------|-------0-| 
A||-----------------------|-----------------------|-------------|---------| 
E||-----------------------|-----------------------|-------------|---------| 
                                                                      Къл-    
 
    D            Am            G          Em        D                Am 
  |-----------------------|-------0-2-0-----------|-----------------------| 
  |-----------------------|---0-3-------3-3-0-----|-----------------------| 
  |-----2/2---------------|-----------------------|---2-------------------| 
  |---4-------------------|-----------------------|-----------------------| 
  |-----------------------|-----------------------|-----------------------| 
  |-----------------------|-----------------------|-----------------------| 
   на се -                ни-ко-га да не заб-ра-вям   теб, 
 
     G              Em         D            Am        G            Em  
  |-----------------------|-----------------------|-------0/0-2-0---------| 
  |-----------------------|-----------------------|---0-3---------3-3-0---| 
  |-----------------------|-----2/2---------------|-----------------------| 
  |-------------------0---|---4-------------------|-----------------------| 
  |-----------------------|-----------------------|-----------------------| 
  |-----------------------|-----------------------|-----------------------| 
                   с ко-     го  то              пет го-ди-ни всич-ко съм де 
 
     D               Am        G             C7        F 
  |-----------------------|-----------------------|-----------------------| 
  |-----------------------|-----------------------|-----1/1------1--------| 
  |--2--------------------|-----------------------|---2-------------------| 
  |-----------------------|-----------------------|-----------------------| 
  |-----------------------|--------------------3--|-----------------------| 
  |-----------------------|-----------------------|-----------------------| 
     лил.                                   Къл-    на  се-     по- 
   
    Cm            F           B             Dm        Gm            A7   
  |-----------------------|-----------------------|-----------------------| 
  |--4-4-4-4-3/3-1-1---3--|---3-3-1---------------|-------------0-3-------| 
  |------------------3----|----------------3/-----|---/3--2---------------| 
  |-----------------------|-----------------------|-----------------------| 
  |-----------------------|-----------------------|-----------------------| 
  |-----------------------|-----------------------|-----------------------| 
   пад-не ли в бе-да един от нас,        о- о,            да му по- 
 
 
     D                Bm         C          A 
  |-----------2-2-2-2/2-2-3/|/3--------------------| 
  |-5\3-3-3/3-3-3-3-3/3-3-5/|/5-----------0-3------| 
  |-----------4-4-4-4/4-4-5/|/5-------2------------| 
  |-------------------------|----------------------|    
  |-------------------------|----------------------| 
  |-------------------------|----------------------| 
  дам ръ-ка и в лош за мене час       да му по- 
 
 
     D               Bm        C          A7           D               Am 
  |-----------2-2-2-2/2-2-3/|/3------------------||-----------------------| 
  |-5\3-3-3/3-3-3-3-3/3-3-5/|/5------------------||-----------------------| 
  |-----------4-4-4-4/4-4-5/|/5------------------||------2/2-----2--------| 
  |-------------------------|-------------0------||---4-------------------| 
  |-------------------------|--------------------||-----------------------| 
  |-------------------------|--------------------||-----------------------| 
  дам ръ-ка и в лош за мене час!            Къл-    на   се-       по- 
 
     G                Em       D           Am          G           Em   
  |---------0-2-0/0---------|---------------------|-----------0-2-0-------| 
  |-----0-3---------3-3-0---|---------------------|-----0-3---------3-3-0-| 
  |-------------------------|---------------------|-----------------------| 
  |-------------------------|----2\0---------2----|-----------------------| 
  |-------------------------|----------4----------|-----------------------| 
  |-------------------------|---------------------|-----------------------| 
   пад-не ли в бе-да да не пре- да-  вам,    при-  я-тел-ски-те грешки да про- 
 
    D                Am         G           C7       F 
  |-------------------------|---------------------|-----------------------|  
  |-------------------------|---------------------|--------1/1------------| 
  |-----2\0-----------------|---------------------|---2-------------------| 
  |-----------4-------------|---------------3-----|-----------------------|   
  |-------------------------|---------------------|-----------------------| 
  |-------------------------|---------------------|-----------------------|   
       ща-  вам.                            Къл-     на се-           във 
 
      Cm              F        B           Dm         Gm           A7 
  |-------------------------|---------------------|-----------------------| 
  |---------------1-1-------|----3-3-3-3-3-3------|-------------------7---| 
  |--------------------3----|-------------------5/|/5\3-3/3---------------| 
  |-------------------------|---------------------|-----------------------| 
  |-------------------------|---------------------|-----------------------| 
  |-------------------------|---------------------|-----------------------| 
  дя-во-ла и в Бо-га да сто-ря аз за теб как во-то мо-     га!       За-  
 
 
  |-----------------2------|-----3--5-----------|--------------2------|---|| 
  |-----5\3----3----3------|-----5--5------7----|-----5\3-3----3------|---|| 
  |-----------------4------|-----5--5-----------|--------------4------|---|| 
  |------------------------|--------------------|---------------------|---|| 
  |------------------------|--------------------|---------------------|---|| 
  |------------------------|--------------------|---------------------|---|| 
   клех се!       За-         клех се!      За -     клех се!     За-клех се! 


Добавлено: 24.06.2012
Другие материалы по этой песне:

Страница создана 27.03.2012
http://primanota.ru/shturcite/kletva-chords.htm
Привет, Гость.
Предлагаем пройти революционный курс по гитаре.
Подарок от PrimaNota.Ru, забирай!