PrimaNota.ru - самый крупный в мире бесплатный архив песенных текстов, аккордов, табулатур и нот


Shreddy Krueger - Vices - таба, видео

Регистрация Запомнить меня
Войти через:  Facebook Google Twitter Vk Yandex Mail.ru

Shreddy Krueger - Vices - таба, видео

Печатать
Просмотров: 67
-------------------------------------------------------------------------------
                             Vices - Shreddy Krueger
-------------------------------------------------------------------------------
Tabbed by: AdamC1997
E-mail: adam.couts@yahoo.com

Tuning: Drop A

Side Note: I will do my best to help you know how long each note will last for,
but listen to the song for more accuracy.

Intro
B |---------------------------------------------------------------------------|
F#|-------------------------------------------------------------------------o-|
D |---------------------------------------------------------------------------|
A |----------53-------------------------53------------------------------------| x2
E |------5-3------------------------5-3-------------------------------------o-|
A |--0-----------5-3-5-3-5/7-------0-----------5-3-5-3-7-7-7-7----------------|

Chorus
B |---------------------------------------------------------------------------|
F#|-------------------------------------------------------------------------o-|
D |---------------------------------------------------------------------------|
A |----------53---------------------------------------------------------------| x4
E |------5-3----------------------------------------------------------------o-|
A |--0-----------5-3-5-3-7-7-7-7----------------------------------------------|

Verse
B |---------------------------------------------------------------------------|
F#|---------------------------------------------------------------------------|
D |---------------------------------------------------------------------------|
A |----------53------------------------53-------------------------------------|
E |------5-3-----------------------5-3----------------------------------------| x2
A |--0-----------5-3-5---------0------------5-3-5-3-7-7-7-7-------------------|

Chorus
B |---------------------------------------------------------------------------|
F#|-------------------------------------------------------------------------o-|
D |---------------------------------------------------------------------------|
A |----------53---------------------------------------------------------------| x4
E |------5-3----------------------------------------------------------------o-|
A |--0-----------5-3-5-3-7-7-7-7----------------------------------------------|

Bridge
B |---2-2-2-2--4-4-4-4--------------------------------------------------------|
F#|---2-2-2-2--4-4-4-4------------------------------------------------------o-|
D |---2-2-2-2--4-4-4-4--------------------------------------------------------|
A |---2-2-2-2--4-4-4-4--------------------------------------------------------| x2 
E |---2-2-2-2--4-4-4-4------------------------------------------------------o-|
A |---0-0-0-0--0-0-0-0--------------------------------------------------------|


B |---2-2-2-2-2-2-2-2-4-4-4-4-4-4-4-4-----------------------------------------|
F#|---2-2-2-2-2-2-2-2-4-4-4-4-4-4-4-4---------------------------------------o-|
D |---2-2-2-2-2-2-2-2-4-4-4-4-4-4-4-4-----------------------------------------|
A |---2-2-2-2-2-2-2-2-4-4-4-4-4-4-4-4-----------------------------------------| x2
E |---2-2-2-2-2-2-2-2-4-4-4-4-4-4-4-4---------------------------------------o-|
A |---0-0-0-0-0-0-0-0-0-0-0-0-0-0-0-0-----------------------------------------|


Chorus
B |---------------------------------------------------------------------------|
F#|-------------------------------------------------------------------------o-|
D |---------------------------------------------------------------------------|
A |----------53---------------------------------------------------------------| x4
E |------5-3----------------------------------------------------------------o-|
A |--0-----------5-3-5-3-7-7-7-7----------------------------------------------|

************************************

| /   slide up
| \   slide down
| h   hammer-on
| p   pull-off
| ~   vibrato
| +   harmonic
| x   Mute note
| b   Bend
| pb  Pre-bend
| br  Bend release
| pbr Pre-bend release
| brb Bend release bend

************************************
Добавлено: 14.12.2015
Другие материалы по этой песне:
  • Аккорды и текст

Страница создана 14.12.2015
http://primanota.ru/shreddy-krueger/vices-chords.htm
Привет, Гость.
Предлагаем пройти революционный курс по гитаре.
Подарок от PrimaNota.Ru, забирай!