PrimaNota.ru - самый крупный в мире бесплатный архив песенных текстов, аккордов, табулатур и нот


Showbread - Welcome To The Plainfield Tobe Hooper - таба, бас-таба, видео

Регистрация Запомнить меня
Войти через:  Facebook Google Twitter Vk Yandex Mail.ru

Showbread - Welcome To The Plainfield Tobe Hooper - таба, бас-таба, видео

Печатать
Просмотров: 113
Showbread
Welcome To Plainfield, Tobe Hooper
No Sir, Nihilism Is Not Practical
© 2006 Tooth and Nail / Solid State
Tuning - Standard: EADGBE
Tabbed By: Jeremy Waterman
Contact: infectedwithyou@hotmail.com

Mmhmm, so just finished this tab to a great song.
It took me awhile, but it was well worth it. I love playing the solos. Actually, I play
way too much. Anyways, so I started this
BEFORE I knew that there was already one here, but mine's different anyways. I'm pretty sure
that mine's at least 97.2 1/3% right, but I haven't been tabbing too long, so I wouldn't know
for sure. It sounds perfect to me, but I'll leave it to you, my lovers. You can send me love
letters, hate mail, and corrections at infectedwithyou@hotmail.com. Or you can send me 
or animals.
That always helps.

Legend:
/  Slide Up
\  Slide Down
.  Palm Mute
b  Bend
h  Hammer On
p  Pull Off
x\ Pick Slide

Intro: (First effects and drum)
E[-----------------]
B[-----------------]
G[-----------------]
D[-----8-8-7-7-5-5-]
A[-7-7-6-6-5-5-3-3-] (x4)
E[-5-5-------------]

Intro Solo:
E[------------------------------------------]
B[------------------------------------------]
G[-9-9-7p5h7-7--------5--9-9-7p5--9--99-99b-]
D[---------------7--57----------7-----------]
A[------------------------------------------]
E[------------------------------------------]

Verse:
 No Guitar in verse, pretty much everything but that.
 I'm currently working on the bass for this, too.

Pre-Chorus 1:
E[-----------------------------------------------------------------]
B[-----------------------------------------------------------------]
G[-----------------8-8-8-8-8-8-8-8-7-7-7-7-7-7-7-7-5-5-5-5-5-5-5-5-]
D[-7-7-7-7-7-7-7-7-8-8-8-8-8-8-8-8-7-7-7-7-7-7-7-7-5-5-5-5-5-5-5-5-]
A[-7-7-7-7-7-7-7-7-6-6-6-6-6-6-6-6-5-5-5-5-5-5-5-5-3-3-3-3-3-3-3-3-]
E[-5-5-5-5-5-5-5-5-------------------------------------------------]

E[-----------------------------------------------------------------]
B[-----------------------------------------------------------------]
G[-----------------8-8-8-8-8-8-8-8-7-7-7-7-7-7-7-7-8-8-8-8-9-9-9-9-]
D[-7-7-7-7-7-7-7-7-8-8-8-8-8-8-8-8-7-7-7-7-7-7-7-7-8-8-8-8-9-9-9-9-]
A[-7-7-7-7-7-7-7-7-6-6-6-6-6-6-6-6-5-5-5-5-5-5-5-5-6-6-6-6-7-7-7-7-]
E[-5-5-5-5-5-5-5-5-------------------------------------------------]

Chorus:
E[---------------------------------------------------------]
B[---------------------------------------------------------]
G[---------------------------------------------------------]
D[-7-7-7-\-5-5-5--5-5-\-2-------/5-------/7---/8---\5---/8-]
A[-7-7-7-\-5-5-5--5-5-\-2-------/5-------/7---/8---\5---/8-]
E[-5-5-5-\-3-3-3--3-3-\-0-------/3-------/5---/6---\3---/6-]

E[------------------------------------------]
B[------------------------------------------]
G[------------------------------------------]
D[-\2-------/5-------/7---/8---\5---/8---\2-]
A[-\2-------/5-------/7---/8---\5---/8---\2-]
E[-\0-------/3-------/5---/6---\3---/6---\0-]

Post-Chorus:
E[--------------------------------]
B[--------------------------------]
G[--------------------------------]
D[-2-22---22-22---22-22--22/8\7\5-]
A[-2-22---22-22---22-22--22/8\7\5-]
E[-0-00---00-00---00-00--00/6\5\3-]
pm    .       .       .

E[-----------------------------------]
B[-----------------------------------]
G[-----------------------------------]
D[-2-22---22-22---22-22--22/8\7\5--7-]
A[-2-22---22-22---22-22--22/8\7\5--7-] (let ring)
E[-0-00---00-00---00-00--00/6\5\3--5-]
pm    .       .       .

Verse:
 First only drums, then bass comes in, then guitar:
E[----------------------------------------------------]
B[----------------------------------------------------]
G[----------5/8---------5/8---------5/8---------5/8\7-]
D[----------5/8---------5/8---------5/8---------5/8\7-]
A[----------3/6---------3/6---------3/6---------3/6\5-] (let ring)
E[----------------------------------------------------]
pm          . .         . .         . .         . .

Pre-Chorus 2:
E[-----------------]
B[-----------------]
G[-----------------]
D[-----8-8-7-7-5-5-]
A[-7-7-6-6-5-5-3-3-] (x4)
E[-5-5-------------]

Chorus:
E[------------------------]
B[------------------------]
G[------------------------]
D[-7-7-7-\-5-5-5--5-5-\-2-]
A[-7-7-7-\-5-5-5--5-5-\-2-] (let ring)
E[-5-5-5-\-3-3-3--3-3-\-0-]

-break for chorus-

Solo:
E[-8p7p5-----8p7p5-----8p7p5-----8p7p5------]
B[------7p5-------7p5-------7p5-------------]
G[------------------------------------------]
D[------------------------------------x\----]
A[------------------------------------x\----]
E[------------------------------------------]

E[---------------------------------]
B[---------------------------------]
G[-9-9-7p5h7-7--------5--9-9-7p5---]
D[---------------7--57----------77-]
A[---------------------------------] (let ring)
E[---------------------------------]

E[-----------------------------------------12b-]
B[-10-10-12-13-15-15-13-12-10---10-10-12-13----]
G[---------------------------------------------]
D[---------------------------------------------]
A[---------------------------------------------]
E[---------------------------------------------]

E[----------------------------------20p18p15-----20p18p15-------15----]
B[-17b-1717b-1717b-17b-1717b-1717b----------18p15--------18p15-----15-]
G[--------------------------------------------------------------------]
D[--------------------------------------------------------------------]
A[--------------------------------------------------------------------]
E[--------------------------------------------------------------------]

E[----1212-1010-8---------8h10-12b12b-10\8----]
B[-15------------10--8h10------------------10-]
G[--------------------------------------------]
D[--------------------------------------------]
A[--------------------------------------------]
E[--------------------------------------------]

Chorus:
E[---------------------------------------------------------]
B[---------------------------------------------------------]
G[---------------------------------------------------------]
D[-7-7-7-\-5-5-5--5-5-\-2-------/5-------/7---/8---\5---/8-]
A[-7-7-7-\-5-5-5--5-5-\-2-------/5-------/7---/8---\5---/8-]
E[-5-5-5-\-3-3-3--3-3-\-0-------/3-------/5---/6---\3---/6-]

E[------------------------------------------]
B[------------------------------------------]
G[------------------------------------------]
D[-\2-------/5-------/7---/8---\5---/8---\2-]
A[-\2-------/5-------/7---/8---\5---/8---\2-]
E[-\0-------/3-------/5---/6---\3---/6---\0-]

Post-Chorus:
E[--------------------------------]
B[--------------------------------]
G[--------------------------------]
D[-2-22---22-22---22-22--22/8\7\5-]
A[-2-22---22-22---22-22--22/8\7\5-] (x2)
E[-0-00---00-00---00-00--00/6\5\3-]
pm    .       .       .

Outro:
E[--------------------------------]
B[--------------------------------]
G[--------------------------------]
D[-2-2---2-2-2---2-2-2--2-2-8-7-5-]
A[-2-2---2-2-2---2-2-2--2-2-8-7-5-]
E[-0-0---0-0-0---0-0-0--0-0-6-5-3-]
pm   .       .       .

E[----------------------------------]
B[----------------------------------]
G[----------------------------------]
D[-2-2---2-2-2---2-2-2--2-2-8-7-5-2-]
A[-2-2---2-2-2---2-2-2--2-2-8-7-5-2-] (let ring)
E[-0-0---0-0-0---0-0-0--0-0-6-5-3-0-]
pm   .       .       .
Добавлено: 21.05.2012
Другие материалы по этой песне:
  • Аккорды и текст

Страница создана 21.05.2012
http://primanota.ru/showbread/welcome-to-the-plainfield-tobe-hooper-chords.htm
Привет, Гость.
Предлагаем пройти революционный курс по гитаре.
Подарок от PrimaNota.Ru, забирай!