PrimaNota.ru - самый крупный в мире бесплатный архив песенных текстов, аккордов, табулатур и нот


Showbread - The Great Emasculation - таба, видео

Регистрация Запомнить меня
Войти через:  Facebook Google Twitter Vk Yandex Mail.ru

Showbread - The Great Emasculation - таба, видео

Печатать
Просмотров: 90
This is my first real tab so help me out with any problems in the format 
or even just the actual tab. I think I'm going to try to get a few 
more showbread songs outlined out, especially of A/N and see if 
someone could help me with the leads and clear up a few things. 
Anyway, here's “The Great Emasculation” for what it's worth. 
Great song off of a great album by a great band.

Intro/verse 
|------------------------------------------------------------|
|---------5*5*5*------5*5*5*------5*5*5*---------------------|
|------------------------------------------------------------| x2
|----77/57-------77/57-------77/57-------77/57---101010------| (3 times first
|----77/57-------77/57-------77/57-------77/57---101010------|      verse)
|----55/35-------55/35-------55/35-------55/35---8-8-8-------|
						   ^ (maybe octaves)
|-------------------------------------------------------------|
|-------------------------------------------------------------|
|----7777--------7777--------7777--------7777----101010-------| x2
|----7777--------7777--------7777--------7777----x-x-x--------|
|----5555--------5555--------5555--------5555----8-8-8--------|
|-------------------------------------------------------------|

|-------------------------------------------------------------------------|
|-------------------------------------------------------------------------|
|--99999999-88888888-77777777-66666666-55555555-44444444-3333333333333333-| 
|--xxxxxxxx-xxxxxxxx-xxxxxxxx-xxxxxxxx-xxxxxxxx-xxxxxxxx-xxxxxxxxxxxxxxxx-|
|--77777777-66666666-55555555-44444444-33333333-22222222-1111111111111111-|
|-------------------------------------------------------------------------|

Chorus 
“Hey! Can someone say to me…”
|----------------------------------------------------------------------|
|----------------------------------------------------------------------|
|----------------------------------------------------------------------|
|--77/57---101010---77/57---101010---77/57---101010---77/57---101010---| 
|--77/57---101010---77/57---101010---77/57---101010---77/57---101010---| 
|--55/35---8-8-8----55/35---8-8-8----55/35---8-8-8----55/35---8-8-8----|
	
“Hey! Can someone say to me…”					   
|----------------------------------------------------------------------|
|----------------------------------------------------------------------|
|--77/57---101010---77/57---101010---77/57---101010---77/57---101010---| 
|--77/57---x-x-x----77/57—--x-x-x----77/57---x-x-x----77/57---x-x-x----| 
|--55/35---8-8-8----55/35---8-8-8----55/35---8-8-8----55/35---8-8-8----|
|----------------------------------------------------------------------|

“Hey! I'm breaking down…”
|----------------------------------------------------------------------|
|----------------------------------------------------------------------|
|--99/79---121212---99/79---121212---99/79---121212---99/79---121212---| 
|--99/79---x-x-x----99/79---x-x-x----99/79---x-x-x----99/79---x-x-x----| 
|--77/57—--101010---77/57—--101010---77/57—--101010---77/57---101010---|
|----------------------------------------------------------------------|

“I've thought a lot about being a robot…”
|-------------------------------------------------------------------------|
|-------------------------------------------------------------------------|
|--99999999-88888888-77777777-66666666-55555555-44444444-3333333333333333-| 
|--xxxxxxxx-xxxxxxxx-xxxxxxxx-xxxxxxxx-xxxxxxxx-xxxxxxxx-xxxxxxxxxxxxxxxx-|
|--77777777-66666666-55555555-44444444-33333333-22222222-1111111111111111-|
|-------------------------------------------------------------------|

REPEAT VERSE/CHORUS

Bridge (Rhythm)
|----------------------------------------------------------------------|
|----------------------------------------------------------------------|
|----------------------------------------------------------------------|
|--77/57---101010---77/57---101010---77/57---101010---77/57---101010---| 
|--77/57---101010---77/57---101010---77/57---101010---77/57---101010---| 
|--55/35---8-8-8----55/35---8-8-8----55/35---8-8-8----55/35---8-8-8----|
						   
|----------------------------------------------------------------------|
|----------------------------------------------------------------------|
|--77/57---101010---77/57---101010---77/57---101010---77/57---101010---| 
|--77/57---x-x-x----77/57—--x-x-x----77/57---x-x-x----77/57---x-x-x----| 
|--55/35---8-8-8----55/35---8-8-8----55/35---8-8-8----55/35---8-8-8----|
|----------------------------------------------------------------------|

|----------------------------------------------------------------------|
|----------------------------------------------------------------------|
|--99/79---121212---99/79---121212---99/79---121212---99/79---121212---| 
|--99/79---x-x-x----99/79---x-x-x----99/79---x-x-x----99/79---x-x-x----| 
|--77/57—--101010---77/57—--101010---77/57—--101010---77/57---101010---|
|----------------------------------------------------------------------|

|-------------------------------------------------------------------|
|-------------------------------------------------------------------|
|--99999999-1111111111111111-1414141414141414---2121212121212121----| 
|--xxxxxxxx-x-x-x-x-x-x-x-x--x-x-x-x-x-x-x-x----x-x-x-x-x-x-x-x-----|
|--77777777-9-9-9-9-9-9-9-9--1212121212121212---1919191919191919----|
|-------------------------------------------------------------------|

|-------------------------------------------------------------------------|
|-------------------------------------------------------------------------|
|--99999999-88888888-77777777-66666666-55555555-44444444-3333333333333333-| 
|--xxxxxxxx-xxxxxxxx-xxxxxxxx-xxxxxxxx-xxxxxxxx-xxxxxxxx-xxxxxxxxxxxxxxxx-|
|--77777777-66666666-55555555-44444444-33333333-22222222-1111111111111111-|
|-------------------------------------------------------------------------|

REPEAT CHORUS

End on:
|-----------|
|-----------|
|-----------|
|--77/57----| 
|--77/57----| 
|--55/35----|

Добавлено: 24.03.2012
Другие материалы по этой песне:
  • Аккорды и текст

Страница создана 24.03.2012
http://primanota.ru/showbread/the-great-emasculation-chords.htm
Привет, Гость.
Предлагаем пройти революционный курс по гитаре.
Подарок от PrimaNota.Ru, забирай!