PrimaNota.ru - самый крупный в мире бесплатный архив песенных текстов, аккордов, табулатур и нот


Shortstraw - Good Morning Sunshine - бас-таба, видео

Регистрация Запомнить меня
Войти через:  Facebook Google Twitter Vk Yandex Mail.ru

Shortstraw - Good Morning Sunshine - бас-таба, видео

Печатать
Просмотров: 179
Уроки эстрадного вокала в Санкт-Петербурге
-------------------------------------------------------------------------------
                     Good Morning, Sunshine - Shortstraw
-------------------------------------------------------------------------------
Tabbed by: Jacob Harte
E-mail: jacobharte21@gmail.com

This is my 2nd bass tab. People have been lacking on Shortstraw bass tabs so I'm here to fix that. Here is
the youtube link- https://www.youtube.com/watch?v=qzxlUgPEXFM

COMMENTS ARE ENCOURAGED!

Tuning: EADG

Hold 4 Bars

VERSE

G|---------------------------------------------------------------------------|
D|---------------------------------------------------------------------------|
A|--4\7-77-7-44--77--7-44-7-77-44-22-24--77-7-44--77--7-44-7-77-44-22-24-----|
E|---------------------------------------------------------------------------|

G|---------------------------------------------------------------------------|
D|---------------------------------------------------------------------------|
A|--77-7-4---77--7-4--7-77-44-22-24--77-7-4---77--7-4--7-77-44-22-24---------|
E|---------------------------------------------------------------------------|

VERSE VARIATION

G|-----99----99----99------99------------------------------------------------|
D|---------------------------------------------------------------------------|
A|--77----77-----77-----77-----44444444---22222222---------------------------|
E|---------------------------------------------------------------------------|

G|-----99----99----99------99------------------------------------------------|
D|---------------------------------------------------------------------------|
A|--77----77-----77-----77-----44444444---22222222--\-7~---------------------|
E|---------------------------------------------------------------------------|

CHORUS

G|--9-11-------9-11------------9-11-------9-11-------------------------------|
D|-------9h11-------9h11------------9h11-------9h11--------------------------|
A|-------------------------7~------------------------777777777777------------|
E|---------------------------------------------------------------------------|

G|--9-11-------9-11----------------------------------------------------------|
D|-------9h11-------9h11-----------------------------------------------------|
A|-------------------------77777777----444--000--444--222--------------------|
E|---------------------------------------------------------------------------|

REPEAT VERSE

"It's time to wake up..."

G|---------------------------------------------------------------------------|
D|---------------------------------------------------------------------------|
A|--7~----------------7-4~-----------4-2~----------2\7~----------------------|
E|---------------------------------------------------------------------------|

G|---------------------------------------------------------------------------|
D|---------------------------------------------------2-----------------------|
A|--7~----------------7-4~-----------4-2~----------2-------------------------|
E|---------------------------------------------------------------------------|

REPEAT VERSE VARIATION

G|-----------------|
D|-----------------|
A|--7777777777777--|
E|-----------------|

G|--9-11-------9-11----------------------------------------------------------|
D|-------9h11-------9h11-----------------------------------------------------|
A|-------------------------77777777----444--000--444--222--------------------|
E|---------------------------------------------------------------------------|

G|-----------------|
D|-----------------|
A|--7777777777777--|
E|-----------------|

G|--9-11-------9-11----------------------------------------------------------|
D|-------9h11-------9h11-----------------------------------------------------|
A|-------------------------77777777----444--000--444--222--------------------|
E|---------------------------------------------------------------------------|

END ON 7TH FRET A STRING


| /  slide up
| \  slide down
| h  hammer-on
| p  pull-off
| ~  vibrato
| +  harmonic
| x  Mute note
===============================================================================
Добавлено: 22.11.2015
Другие материалы по этой песне:
  • Аккорды и текст

Страница создана 22.11.2015
http://primanota.ru/shortstraw/good-morning-sunshine-chords.htm
Привет, Гость.
Предлагаем пройти революционный курс по гитаре.
Подарок от PrimaNota.Ru, забирай!