PrimaNota.ru - самый крупный в мире бесплатный архив песенных текстов, аккордов, табулатур и нот


Shortstraw - Bikini Weather - бас-таба, видео

Регистрация Запомнить меня
Войти через:  Facebook Google Twitter Vk Yandex Mail.ru

Shortstraw - Bikini Weather - бас-таба, видео

Печатать
Просмотров: 55
BIKINI WEATHER - SHORTSTRAW

I made this tab because there was no tabs out there and this is a beautiful bass part.
This is my first Bass Tab ever so please tell me if you find any faults!
(PS I did this in notepad before I knew there was a tab template.)
https://www.youtube.com/watch?v=fQh8wezotC8 > This is the youtube link to the song
Okay! Enjoy!


INTRO/VERSE

G|-------------4-6-4---------|          
D|-----2-2-4-4---------------|                          
A|-0-0-----------------------|                          
E|---------------------------|
                                (Do until it goes to soft part) 
G|---------------------------|                          
D|-----2-2-4-4---------------|                          
A|-0-0---------2-4-2---------|                          
E|---------------------------|                          

"You're such a robot oh"

G|---------------------------|
D|---------------------------|
A|-0-0-0-0-0-7-7-7-7-7-------|
E|---------------------------|

G|---------------------------|
D|---------------------------|
A|-5-5-5-5-5-7-7-7-7-7-------|
E|---------------------------|

"You're such a robot!"

G|---------------------------|
D|---------------------------|
A|-000000000-777777777-------|
E|---------------------------|

G|---------------------------|
D|---------------------------|
A|-555555555-777777777-------|
E|---------------------------|

"Take it to the back now"

G|-------------4-6-4---------|
D|-----2-2-4-4---------------|
A|-0-0-----------------------|
E|---------------------------|
                                (Do until it goes to soft part)
G|---------------------------|
D|-----2-2-4-4---------------|
A|-0-0---------2-4-2---------|
E|---------------------------|

"We'll start a rumor oh"

G|---------------------------|
D|---------------------------|
A|-0-0-0-0-0-7-7-7-7-7-------|
E|---------------------------|

G|---------------------------|
D|---------------------------|
A|-5-5-5-5-5-7-7-7-7-7-------|
E|---------------------------|

"We'll start a rumor!"

G|---------------------------|
D|---------------------------|
A|-000000000-777777777-------|
E|---------------------------|

G|---------------------------|
D|---------------------------|
A|-555555555-777777777-------|
E|---------------------------|

"Take it to the..."

G|---------------------------|
D|-----2-2-4-4-2-4-2---------|
A|-0-0---------------4-------|
E|---------------------------|
                                x2
G|---------------------------|
D|-----2-2-4-4---------------|
A|-0-0---------2-4-2---------|
E|---------------------------|

Breakdown

G|---------------------------|
D|---------------------------|
A|-0-0-0-0-0-7-7-7-7-7-------|
E|---------------------------|
                                
G|---------------------------|
D|---------------------------|
A|-5-5-5-5-5-7-7-7-7-7-------|
E|---------------------------|

"You gotta get ready for that summer season"

G|---------------------------|
D|---------------------------|
A|-000000000-777777777-------|
E|---------------------------|
                                
G|---------------------------|
D|---------------------------|
A|-555555555-777777777-------|
E|---------------------------|

"To the world you're so cynical"

G|---------------------------|
D|---------------------------|
A|-0-0-0-0-0-7-7-7-7-7-------|
E|---------------------------|
                                
G|---------------------------|
D|---------------------------|
A|-5-5-5-5-5-777-777-777-777-|
E|---------------------------|

End Verse

G|---------------------------|
D|---------------------------|
A|-0~ -------7~--------------|
E|---------------------------|
                                
G|---------------------------|
D|---------------------------|
A|-5~--------7~--------------|
E|---------------------------|


LEGEND:

~ Hold

About it.
Добавлено: 22.11.2015
Вам также может быть интересно:
Другие материалы по этой песне:
  • Аккорды и текст

Страница создана 22.11.2015
http://primanota.ru/shortstraw/bikini-weather-chords.htm
Привет, Гость.
Предлагаем пройти революционный курс по гитаре.
Подарок от PrimaNota.Ru, забирай!