PrimaNota.ru - самый крупный в мире бесплатный архив песенных текстов, аккордов, табулатур и нот


Short Stack - We All Know - таба, видео

Регистрация Запомнить меня
Войти через:  Facebook Google Twitter Vk Yandex Mail.ru

Short Stack - We All Know - таба, видео

Печатать
Просмотров: 65
-------------------------------------------------------------------------------
                             We All Know - Short Stack
-------------------------------------------------------------------------------

Tuning: Standard


Intro:
e|--------------------------------------------------------------------|
B|--------------------------------------------------------------------|
G|--9-8----9-8----9-8-9-8-9-8-9-8--9-8----9-8-11--9-8-9-8-9-8-9-8-----|
D|--9-8-9--9-8-9--9-8-9-8-9-8-9-8--9-8-9--9-8-11--9-8-9-8-9-8-9-8-9---|
A|--7-6-9--7-6-9--7-6-7-6-7-6-7-6--7-6-9--7-6--9--7-6-7-6-7-6-7-6-9---|
E|------7------7-----------------------7--------------------------7---|


Verse:
"Excuse me..."
e|------------------------------------------|
B|------------------------------------------|
G|------------------------------------------|
D|--11----11----9---9----7---7----2---2-----|
A|--11----11----9---9----7---7----2---2-----|
E|---9x4---9x4--7x4-7x4--5x4-5x4--0x4-0x4---|

e|------------------------------------------|
B|------------------------------------------|
G|------------------------------------------|
D|--11----11----9---9----7---7----9---9-----|
A|--11----11----9---9----7---7----9---9-----|
E|---9x4---9x4--7x4-7x4--5x4-5x4--7x4-7x4---|


Chorus:
e|----------------------------|
B|----------------------------|
G|---------9------------------|
D|--11-----9-----9-----7------|
A|--11-----7x16--9-----7------|
E|---9x16--------7x16--5x16---|


[Intro]
e|--------------------------------------------------------------------|
B|--------------------------------------------------------------------|
G|--9-8----9-8----9-8-9-8-9-8-9-8--9-8----9-8-11--9-8-9-8-9-8-9-8-----|
D|--9-8-9--9-8-9--9-8-9-8-9-8-9-8--9-8-9--9-8-11--9-8-9-8-9-8-9-8-9---|
A|--7-6-9--7-6-9--7-6-7-6-7-6-7-6--7-6-9--7-6--9--7-6-7-6-7-6-7-6-9---|
E|------7------7-----------------------7--------------------------7---|

[Verse]
e|------------------------------------------|
B|------------------------------------------|
G|------------------------------------------|
D|--11----11----9---9----7---7----2---2-----|
A|--11----11----9---9----7---7----2---2-----|
E|---9x4---9x4--7x4-7x4--5x4-5x4--0x4-0x4---|

e|------------------------------------------|
B|------------------------------------------|
G|------------------------------------------|
D|--11----11----9---9----7---7----9---9-----|
A|--11----11----9---9----7---7----9---9-----|
E|---9x4---9x4--7x4-7x4--5x4-5x4--7x4-7x4---|


[Chorus]
e|----------------------------|
B|----------------------------|
G|---------9------------------|
D|--11-----9-----9-----7------|
A|--11-----7x16--9-----7------|
E|---9x16--------7x16--5x16---|

[Chorus]x2
Добавлено: 09.05.2016
Другие материалы по этой песне:
  • Аккорды и текст

Страница создана 09.05.2016
http://primanota.ru/short-stack/we-all-know-chords.htm
Привет, Гость.
Предлагаем пройти революционный курс по гитаре.
Подарок от PrimaNota.Ru, забирай!