PrimaNota.ru - самый крупный в мире бесплатный архив песенных текстов, аккордов, табулатур и нот


Short Stack - Television - таба, видео

Регистрация Запомнить меня
Войти через:  Facebook Google Twitter Vk Yandex Mail.ru

Short Stack - Television - таба, видео

Печатать
Просмотров: 24
-------------------------------------------------------------------------------
                             TELEVISION - Short Stack
-------------------------------------------------------------------------------
Tabbed by: Olivia Cooper
E-mail: ooliviaae@gmail.com

Tuning: Standard


Verse:
"I hate this town..."
e|------------------------------------------------------------------------------|
B|------------------------------------------------------------------------------|
G|-------6-6-6-------4-4-3-3--------6-6-6-------4---3---------6-6-6-------4-4---|
D|--6-6--6-6-6--4-4--4-4-3-3---6-6--6-6-6--4-4--4---3----6-6--6-6-6--4-4--4-4---|
A|--6-6--4-4-4--4-4--2-2-1-1---6-6--4-4-4--4-4--2x4-1x4--6-6--4-4-4--4-4--2-2---|
E|--4-4---------2-2------------4-4---------2-2-----------4-4---------2-2--------|


Chorus:
"Close your eyes..."
e|-----------------------|
B|-----------------------|
G|------------4----------|
D|--6----2----4----4-----|
A|--6----2----2x8--4-----|
E|--4x8--0x8-------2x8---| x2

"My, my television..."
e|---------------------------------------------------|
B|---------------------------------------------------|
G|------------3--4-4-----9-8-------------3--4-4------|
D|--6-6--2-2--3--4-4--4--9-8---6-6--2-2--3--4-4--4---|
A|--6-6--2-2--1--2-2--4--7-6---6-6--2-2--1--2-2--4---|
E|--4-4--0-0----------2--------4-4--0-0----------2---|



[Verse]


Chorus:
"Close your eyes..."
e|-----------------------|
B|-----------------------|
G|------------4----------|
D|--6----2----4----4-----|
A|--6----2----2x8--4-----|
E|--4x8--0x8-------2x8---| x2

Chorus:
"My, my television..."
e|-----------------------|
B|-----------------------|
G|-------9----4----------|
D|--6----9----4----4-----|
A|--6----7x8--2x8--4-----|
E|--4x8------------2x8---| x2



Bridge:
"She said she's comin' home tonight..."
e|-------------------|
B|-------------------|
G|----------4--11~---|
D|--6~--2~--4--11~---|
A|--6~--2~--2---9~---|
E|--4~--0~-----------| x3



Last Chorus:
"Oh, theres nothin' good on..."
e|--------------------------------------------|
B|--------------------------------------------|
G|------------4----------8----9----4----------|
D|--6----2----4----4-----8----9----4----4-----|
A|--6----2----2x8--4-----6x8--7x8--2x8--4-----|
E|--4x8--0x8-------2x8------------------2x8---|


"Close your eyes..."
Guitar 1:
e|-----------------------------------------------|
B|-----------------------------------------------|
G|------------4-------------------4--------------|
D|--6----2----4----4----6----2----4----4----6~---|
A|--6----2----2x8--4----6----2----2x8--4----6~---|
E|--4x8--0x8-------2x8--4x8--0x8-------2x8--4~---|


Guitar 2:
e|-----------------------------------------------------------------------|
B|-----------------------------------------------------------------------|
G|--4434446444344666-8868889-666466888--4434446444344666-8-8-9-8-6-6-----|
D|-----------------------------------------------------------------------|
A|--2212224222122444-6646667-444244666--2212224222122444-6-6-7-6-4-4x7---|
E|-----------------------------------------------------------------------|


************************************

| /   slide up
| \   slide down
| h   hammer-on
| p   pull-off
| ~   vibrato
| +   harmonic
| x   Mute note
| b   Bend
| pb  Pre-bend
| br  Bend release
| pbr Pre-bend release
| brb Bend release bend

************************************
Добавлено: 19.10.2015
Другие материалы по этой песне:
  • Аккорды и текст

Страница создана 19.10.2015
http://primanota.ru/short-stack/television-chords.htm
Привет, Гость.
Предлагаем пройти революционный курс по гитаре.
Подарок от PrimaNota.Ru, забирай!