PrimaNota.ru - самый крупный в мире бесплатный архив песенных текстов, аккордов, табулатур и нот


Short Stack - Sway Sway Baby - аккорды и текст, таба, бас-таба, видео

Регистрация Запомнить меня
Войти через:  Facebook Google Twitter Vk Yandex Mail.ru

Short Stack - Sway Sway Baby - аккорды и текст, таба, бас-таба, видео

Печатать
Просмотров: 222
Уроки эстрадного вокала в Санкт-Петербурге
Sway Sway Baby
Short Stack
Any corrections email me at callum.baker@gmial.com

Verse 1
C#
Reach for the stars kid, i've been wondering,
C# x3
Heaven's not too far kid, we've been tumbling,
C# x2 (slide down)
Down down baby, you're so audio
C# x3
But i'm a gentleman, i'm such a gentleman,
C#
We keep in time kid, you're so into it
C#x3
But if you were mine kid, we'd be intermate
C# x2 (slide down
Oh These razors aint your roses
C# x3
But i'm a gentleman, (i'm such a gentleman)

Chorus
C#
Sway sway baby you're so audio
Eb
Kill your boyfriend we could be together oh
Bb
Sway sway baby tonight, maybe tonight
Ab
You'll write back to my letters home oh
C#
We'll never let go oh
We'll never let go oh
We'll never let

Riff
|----------------|
|--2-----1-5-5-5-|
|----1-3---------|
|----------------|
|----------------|
|----------------|

Verse 2
C#                   C
Were torn apart kid, tearing to the beat
Bb                      F#
Lovers to the bone kid, you said no no no
C#                   C        Bb                   F#
These razors aint your roses, but i'm a gentleman, i'm such a gentleman

Pre Chorus
C#

Chorus
C#
Sway sway baby you're so audio
Eb
Kill your boyfriend we could be together oh
Bb
Sway sway baby tonight, maybe tonight
Ab
You'll write back to my letters home oh

|------------------------------------------------------------------|
|------------------------------------------------------------------|
|------------------------------------------------------------------|
|------3-----4-3-------3-----4-3-------3-----4-3-------4-4-----3-3-|
|--4-4---4-4-----4-3-3---3-3-----3-1-1---1-1-----4-----------------|
|--------------------------------------------------2-2-----4-4-----|

Cause i insist this secret liquid shared between us just to skip this secret through our 
oh oh secrets down our throat oh oh
Yeah i insist this secret liquid shared between us just to skip this secrets down our 
oh oh secrets down
And i'll never let you go (i'm such a gentleman, i'm such a gentleman) (2x)

                     F#
Sway baby, sway baby oh
                Ab
We'll love like hell

C#
Sway sway baby you're so audio
Eb
Kill your boyfriend we could be together oh
Bb
Sway sway baby tonight, maybe tonight
Ab
You'll write back to my letters home oh
C#
We'll never let go oh
                Eb
We'll never let go oh

We'll never let go oh
                Bb
We'll never let go oh
                Ab
We'll never let go oh

We'll never let go!

|------------------------------------------------|
|--2-----1-5-2-5-2-5-7-5-5-2-5-7-9-9-9-9-9-7-----|
|----1-3-------------------------------------9-6-|
|------------------------------------------------|
|------------------------------------------------|
|------------------------------------------------|
Добавлено: 27.05.2012
Другие материалы по этой песне:
  • Аккорды и текст

Страница создана 21.03.2012
http://primanota.ru/short-stack/sway-sway-baby-chords.htm
Привет, Гость.
Предлагаем пройти революционный курс по гитаре.
Подарок от PrimaNota.Ru, забирай!