PrimaNota.ru - самый крупный в мире бесплатный архив песенных текстов, аккордов, табулатур и нот


Short Stack - Stack Is The New Black (album) - таба, видео

Регистрация Запомнить меня
Войти через:  Facebook Google Twitter Vk Yandex Mail.ru

Short Stack - Stack Is The New Black (album) - таба, видео

Печатать
Просмотров: 23
~~~~~~~~~~~~~~~~~~~~~~~~~~~~~~~~~~~~~~~~~~~~~~~~~~~~~~~~~~~~~~~~~~~~~~~~~~~~~~~
                              STACK IS THE NEW BLACK ALBUM
~~~~~~~~~~~~~~~~~~~~~~~~~~~~~~~~~~~~~~~~~~~~~~~~~~~~~~~~~~~~~~~~~~~~~~~~~~~~~~~
Tabbed by: Olivia Cooper
E-mail: ooliviaae@gmail.com

-------------------------------------------------------------------------------
                             LADIES AND GENTLEMEN - Short Stack
-------------------------------------------------------------------------------

Tuning: Standard



Verse:
"Ladies and gentlemen can I"
e|-----------------------------------------------------------------|
B|-----------------------------------------------------------------|
G|--6-6-6-6-6-6-6-66------------------9-9-9-9-9-9-9-99-6-6-6-6-6---|
D|--6-6-6-6-6-6-6-66-7-7-7-7-7-7-7-77-9-9-9-9-9-9-9-99-6-6-6-6-6---|
A|--4-4-4-4-4-4-4-44-7-7-7-7-7-7-7-77-7-7-7-7-7-7-7-77-4-4-4-4-4---|
E|-------------------5-5-5-5-5-5-5-55------------------------------| x2


Pre-Chorus:
"Woah oh oh oh!"
e|--------------------------------------------------------------------|
B|--------------------------------------------------------------------|
G|--6-6-6-6-----------------------------6-6-6-6-----------------------|
D|--6-6-6-6-77777777-22222222-66667766--6-6-6-6-77777777-22222222-6---|
A|--4-4-4-4-77777777-22222222-66667766--4-4-4-4-77777777-22222222-6---|
E|----------55555555-00000000-44445544----------55555555-00000000-4---|
            xxxxxxxx xxxxxxxx xxxxxxxx          xxxxxxxx xxxxxxxx


Chorus:
"So wrap your lips around these lies..."
e|----------------------------------------------------------------|
B|----------------------------------------------------------------|
G|--6-666-666-6666------------------------------------------------|
D|--6-666-666-6666-7-777-777-7777-2-222-222-2222-6-666-66/77\66---|
A|--4-444-444-4444-7-777-777-7777-2-222-222-2222-6-666-66/77\66---|
E|-----------------5-555-555-5555-0-000-000-0000-4-444-44/55\44---| x2 

Main Riff:
e|------------------------------------|
B|------------------------------------|
G|------------------------------------|
D|------6---676---6--76----76----66---|
A|--4/7---7-----7-------76----76-66---|
E|-------------------------------44---|


*Guitar Break, just bass and drums*


Pre-Chorus:
"Woah oh oh oh!"
e|--------------------------------------------------------------------|
B|--------------------------------------------------------------------|
G|--6-6-6-6-----------------------------6-6-6-6-----------------------|
D|--6-6-6-6-77777777-22222222-66667766--6-6-6-6-77777777-22222222-6---|
A|--4-4-4-4-77777777-22222222-66667766--4-4-4-4-77777777-22222222-6---|
E|----------55555555-00000000-44445544----------55555555-00000000-4---|
            xxxxxxxx xxxxxxxx xxxxxxxx          xxxxxxxx xxxxxxxx


Chorus:
e|----------------------------------------------------------------|
B|----------------------------------------------------------------|
G|--6-666-666-6666------------------------------------------------|
D|--6-666-666-6666-7-777-777-7777-2-222-222-2222-6-666-66/77\66---|
A|--4-444-444-4444-7-777-777-7777-2-222-222-2222-6-666-66/77\66---|
E|-----------------5-555-555-5555-0-000-000-0000-4-444-44/55\44---| x2

e|-----------------------|
B|-----------------------|
G|--6--------------------|
D|--6----7----2----6-----|
A|--4x8--7----2----6-----|
E|-------5x8--0x8--4x8---| x2


Bridge:
"So don't you swim alone tonight..."
e|--------------------------------------------|
B|--------------------------------------------|
G|-----6--------------------------------------|
D|--66-4-6-----1111119-13131613111113131313---|  (All the 1's are actually 11's)
A|--44---4-7-7--9-9-97-11111411-9-911111111---|
E|---------5-5--------------------------------| x4


Solo:
e|-------------------------------------------------------------------------------------|
B|-------------------------------------------------------------------------------------|
G|-------------------------------------------------------------------------------------|
D|------6---6-7-6---6--76----76---------997766------6---676---6--76----76------66666---|
A|--4/7---7-------7-------76----76---6---------4/7---7-----7-------76----76-7--66666---|
E|---------------------------------7-------------------------------------------44444---|


Last Chorus:

e|-----------------------|
B|-----------------------|
G|--6--------------------|
D|--6----7----2----6-----|
A|--4x8--7----2----6-----|
E|-------5x8--0x8--4x8---| x6

Outro:

e|-----------------------------------|
B|-----------------------------------|
G|-----6-----------------------------|
D|--66-4-6-----1111119-1313161311~---|
A|--44---4-7-7--9-9-97-11111411-9~---|
E|---------5-5-----------------------|



-------------------------------------------------------------------------------
                             PRINCESS - Short Stack
-------------------------------------------------------------------------------

Tuning: Standard


Verse:
"This incentive represents this..."
Guitar 1
e|-----------------------------------------------------|
B|-----------------------------------------------------|
G|--8-8-8888-7-7--10101010-----------------------------|
D|--8-8-8888-7-7--10101010--10-10-10101010--8-8-8888---|
A|--6-6-6666-5-5---8-8-8-8--10-10-10101010--8-8-8888---|
E|---------------------------8--8--8-8-8-8--6-6-6666---| x4

Guitar 2 (Lead):
e|---------66----------------66------------------66----------------6\---|
B|----------------------------------------------------------------------|
G|--887788----887788--887788----887788----887788----887788--887788------|
D|----------------------------------------------------------------------|
A|----------------------------------------------------------------------|
E|----------------------------------------------------------------------|

Guitar 3:
e|---------------------------------------|
B|---------------------------------------|
G|--8------------------------------------|
D|---------------------------------------|
A|--6-(Play continuously until chorus)---|
E|---------------------------------------|


Chorus:
Guitar 1:
e|--------------------------------|
B|--------------------------------|
G|--8-----------------------------|
D|--8-----6-----------8----6------|
A|--6x16--6-----10----8----6------|
E|--------4x16---8x8--6x8--4x16---| x2

Guitar 2(Only play after Shaun sings "breaks every single breath"):
e|---------66----------|
B|---------------------|
G|--887788----887788---|
D|---------------------|
A|---------------------|
E|---------------------|

Guitar 3:
e|-------------------------------------------------|
B|-------------------------------------------------|
G|--8-8-8-8----------------------------------------|
D|---6-6-6-6-(Plays continuously until 1st solo)---|
A|-------------------------------------------------|
E|-------------------------------------------------|


1st Solo:
Guitar 1:
e|-------------------------------|
B|-------------------------------|
G|--8----10----------------------|
D|--8----10-----10----8----6-----|
A|--6x16--8x16--10----8----6-----|
E|---------------8x8--6x8--4x8---|

Guitar 2
e|-------------------------------------------------------------------------------|
B|-------------------------------------------------------------------------------|
G|--88--88--88--8--1010--1010--1010--10-------8--8-----10-10-----881010121210\---|
D|----88--88--88-8-----88----88----88--8--1010-10-10-88--8--8--66----------------|
A|-------------------------------------------------------------------------------|
E|-------------------------------------------------------------------------------|


Verse:
Guitar 1
e|-------------------------------------------------|
B|-------------------------------------------------|
G|--8-8-8888-7-7--10101010-------------------------|
D|--8-8-8888-7-7--10101010--10-10-10101010--8-8\---|
A|--6-6-6666-5-5---8-8-8-8--10-10-10101010--8-8\---|
E|---------------------------8--8--8-8-8-8--6-6\---|

Guitar 3 (Wait until Shaun finishes "loosely wrapping scars"):
e|---------------|
B|---------------|
G|---------------|
D|---------------|
A|---------------|
E|--6-8-6-8-6\---|

Guitar 2 (Wait until Andy sings "tell me anything and everything"):
e|-------------------------------------------|
B|-------------------------------------------|
G|--8877881010887788--88778810101212101088---|
D|-------------------------------------------|
A|-------------------------------------------|
E|-------------------------------------------|

Guitar 3:
"18 cliche's clash where we lay..."
e|--------------------|
B|--------------------|
G|--8-8-8-8-8-8-8-8---|
D|--------------------|
A|--6-6-6-6-6-6-6-6---|
E|--------------------|

Guitar 2:
"Tell me anything and everything..."
e|-------------------------------------------|
B|-------------------------------------------|
G|--8877881010887788--88778810101212101088---|
D|-------------------------------------------|
A|-------------------------------------------|
E|-------------------------------------------|

Guitar 1:
"HEY! HEY! HEY!"
e|-------|
B|-------|
G|--8~---|
D|--8~---|
A|--6~---|
E|-------|


[Chorus]


2nd Solo:
Guitar 2
e|--------------------------------------------------------------------------------------|
B|--------------------------------------------------------------------------------------|
G|--88--88--88--8--1010--1010--1010--10-------8--8-----10-10-----88101012121010881012---|
D|----88--88--88-8-----88----88----88--8--1010-10-10-88--8--8--66-----------------------|
A|--------------------------------------------------------------------------------------|

e|-----------------------------------------------------------------------------------|
B|-----------------------------------------------------------------------------------|
G|--1515----1515----1515----15--------------------------1212----12--------------12---|
D|------1313----1313----1313--13--15151313151513131513------1313--13--1515131315-----|
A|-----------------------------------------------------------------------------------|
E|-----------------------------------------------------------------------------------|

e|-----------------------------|
B|-----------------------------|
G|----881010121210108810128~---|
D|--66-------------------------|
A|-----------------------------|
E|-----------------------------|


[Main riff after Shaun finishes "and every single breath"]


Before Last Chorus:
Guitar 1
e|---------------|
B|---------------|
G|---------------|
D|--1010-88-6~---|
A|--1010-88-6~---|
E|---8-8-66-4~---|

Guitar 2:
e|---------66----------|
B|---------------------|
G|--887788----887788---|
D|---------------------|
A|---------------------|
E|---------------------|

[Chorus]

[2nd Solo]

Finish with:
Guitar 1
e|-------|
B|-------|
G|-------|
D|--6~---|
A|--6~---|
E|--4~---|

Guitar 2:
e|-------|
B|-------|
G|-------|
D|--6~---|
A|-------|
E|-------|



-------------------------------------------------------------------------------
                             SHIMMY A GO GO - Short Stack
-------------------------------------------------------------------------------

Tuning: Standard

Intro:
e|-------------------------------------------------------------------------------------------------|
B|-------------------------------------------------------------------------------------------------|
G|-------------------------------------------------------------------------------------------------|
D|-----33-------33--------66----66----4433--------33---------33--------66----66--33343---33343-----|
A|--11----4433-----443344----44----33------44--11----4433-------443344----44-----------4-------4---|
E|-------------22-----------------------------------------22---------------------------------------| x2

Last time:
e|-------|
B|-------|
G|-------|
D|-------|
A|--1~---|
E|-------|


Pre-Chorus:
"Step one is your heart..."
e|-----------------------------------------|
B|-----------------------------------------|
G|--3-3-3333----------6-6-6666-------------|
D|--3-3-3333-4-4-4444-6-6-6666-------------|
A|--1-1-1111-4-4-4444-4-4-4444-3-3/44\33---|
E|-----------2-2-2222----------1-1/22\11---| x2

Second time:

e|---------|
B|---------|
G|---------|
D|---------|
A|--3333---|
E|--1111---|
    xxx


Chorus:
"Your finger is on the trigger so..."
e|------------------------------------------------------------------------------------------------------------|
B|------------------------------------------------------------------------------------------------------------|
G|--3---------6---------3---------66-666-6------------3---------6---------3---------6-------------------------|
D|--3----4----6----3----3----4----66-666-6--33-33-3---3----4----6----3----3----4----6-------------------------|
A|--1x8--4----4x8--3----1x8--4----44-444-4--33-33-3---1x8--4----4x8--3----1x8--4----4x8--33343---333433341~---|
E|-------2x8-------1x8-------2x8------------11-11-1--------2x8-------1x8-------2x8-------------4--------------|


"When I repeat confessions..."
e|----------------------------------|
B|----------------------------------|
G|----------------------------------|
D|---------------------------4343---|
A|--1~-3-4----4-3-4~-6-8-4-4--------|
E|---------2~-----------------------|


[Pre-Chorus]

[Chorus]

Bridge:
e|-------------------------------------------------------------------------------------------|
B|-------------------------------------------------------------------------------------------|
G|-------------------------------------------------------------------------------------------|
D|-----33---------33--------66----66----4433--------33---------33--------66----66------------|
A|--11----4433-------443344----44----33------44--11----4433-------443344----44----44443333---|
E|-------------22-------------------------------------------22-------------------------------|

Solo:
e|--------------------------------------------------------------------------------------|
B|--------------------------------------------------------------------------------------|
G|---------------------------------------------------------------------------66665555---|
D|-----443344----443344----686343----4----4-------443344----334433----686343------------|
A|--11------------------44--------34---34---34-11------------------44-------------------|
E|------------22-----------------------------------------22-----------------------------|


Pre-Chorus:
"OH! Get down.."
e|------------------------------------------------------------------------|
B|------------------------------------------------------------------------|
G|--3-3-3333----------6-6-6666------------3-3-3333----------6-6-6666------|
D|--3-3-3333-4-4-4444-6-6-6666------------3-3-3333-4-4-4444-6-6-6666-3~---|
A|--1-1-1111-4-4-4444-4-4-4444-3-3/44\33--1-1-1111-4-4-4444-4-4-4444-3~---|
E|-----------2-2-2222----------1-1/22\11-----------2-2-2222----------1~---|


Last Chorus:
e|---------------------------------------------------------------------------------------------|
B|---------------------------------------------------------------------------------------------|
G|--3---------6---------3---------66-666-6------------3---------6---------3---------66-66------|
D|--3----4----6----3----3----4----66-666-6--33-33-3---3----4----6----3----3----4----66-66-3~---|
A|--1x8--4----4x8--3----1x8--4----44-444-4--33-33-3---1x8--4----4x8--3----1x8--4----44-44-3~---|
E|-------2x8-------1x8-------2x8------------11-11-1--------2x8-------1x8-------2x8--------1~---|



-------------------------------------------------------------------------------
                             SWAY, SWAY BABY! - Short Stack
-------------------------------------------------------------------------------

Tuning: Standard



Verse:
"Reach for the stars kid..."
E------------------------------------------------|
B------------------------------------------------|
G--6-6--6----6-6--6----6-6--6---------6-6--6-----|
D--6-6--6----6-6--6----6-6--6----4----6-6--6-----|
A--4-4--4x5--4-4--4x5--4-4--4x5--4----4-4--4x5---|
E--------------------------------2x5-------------|
                                 x


Chorus:
"Sway, sway baby..."
e---------------------------------------------------|
B---------------------------------------------------|
G--6-----8--------------------66--6--66--6--66--6---|
D--6-----8-----8-----6------------------------------|
A--4x16--6x16--8-----6------44--44-44--44-44--44----|
E--------------6x16--4x16---------------------------|

Riff:
e-------------|
B-------------|
G--6--6999\---|
D---68--------|
A-------------|
E-------------|


Verse:
"We're torn apart kid..."
e-----------------------------------------|
B-----------------------------------------|
G--6\5--3------------6\---6-6---6---6-----|
D--6\5--3------------6\---6-6---6---6-----|
A--4\3--1------------4\---4-4x5-4x5-4x5---|
E----------2-2-2222-----------------------|



Chorus:
"Sway, sway baby..."
e-------------------------------------------------------------|
B-------------------------------------------------------------|
G--6-----8-----------------6-----8----11---10-----------------|
D--6-----8-----8-----6-----6-----8----11---10----8-----6------|
A--4x16--6x16--8-----6-----4x16--6x8---9x4--8x4--8-----6------|
E--------------6x16--4x16------------------------6x16--4x16---|



Bridge:
e-------------------------------------|
B-------------------------------------|
G-------------------------------------|
D----3--43---3--43---3--43---33--66---|
A--44-44--433-33--311-11--1-----------|
E--------------------------22--44-----| x4

Last Time:
e-----------------------------------------------------------------|
B-----------------------------------------------------------------|
G-----------------------------------------------------------------|
D----3--43---3--43---3--43---4-4-4-6-6-6-4~---6---8---10---13-----|
A--44-44--433-33--311-11--1--4-4-4-6-6-6-4~---6---8---10---13-----|
E----------------------------2-2-2-4-4-4-2~---4x4-6x4--8x4-11x4---|
                             x x x x x x

Last Chorus:
e----------------------------------------------------------------|
B----------------------------------------------------------------|
G--6-----8-----------------6-----8-------------------------------|
D--6-----8-----8-----6-----6-----8--8-----6----8----10----13-----|
A--4x16--6x16--8-----6-----4x16--6--8-----6----8----10----13-----|
E--------------6x16--4x16-----------6x16--4x4--6x4---8x4--11x4---|

e-------------------------------------------|
B-------------------------------------------|
G--6----8--------------6----8---------------|
D--6----8----8----6----6----8----8----6-----|
A--4x8--6x8--8----6----4x8--6x8--8----6-----|
E------------6x8--4x8------------6x8--4x8---|


Outro:
e-------------------------------------------------------------------------|
B-------------------------------------------------------------------------|
G--6---6-9-6-4-6-9-1-1-9-9--6-9-1-1--1-1/13-11/13-11/13-11/13-13-11-9-6---|
D---6-8-------------------------------------------------------------------|
A-------------------------------------------------------------------------|
E-------------------------------------------------------------------------|



-------------------------------------------------------------------------------
                             IN THIS PLACE - Short Stack
-------------------------------------------------------------------------------

Tuning: Standard


Intro:
"In this place we lie..."
e---------------|
B---------------|
G-----7--5------|
D--2--7--5--7---|
A--2--5--3--7---|
E--0--------5---| Strumming is weird as hell throughout the whole song so bare with me here :P


Chorus:
"So will you lay..."
e---------------------|
B---------------------|
G--9--7--5--4--5--7---|
D--9--7--5--4--5--7---|
A--7--5--3--2--3--5---|
E---------------------| x2

Riff:
e--------------------------------------|
B--------------------------------------|
G---------4-7--------4-7----5-4h5-5~---|
D----5----------5---------5------------|
A--------------------------------------|
E--0---0------0---0-----0--------------|


*Just bass for second verse*

[Chorus]


Bridge:
"And we'll go!"
e-----------------------------------------------|
B-----------------------------------------------|
G--9---9---9----7---7---7----5----4---5---7-----|
D--9---9---9----7---7---7----5----4---5---7-----|
A--7x4-7x4-7x2--5x4-5x4-5x2--3x8--2x3-3x3-5x2---|
E-----------------------------------------------| x2

Solo:
e----------------------------------------------------------------------|
B----------------------------------------------------------------------|
G--9x12/12x4\7x8/12\5x12-4x4-5x4-7--9x12/12x4\7x8----------------------|
D-------------------------------------------------5-7x12-5x4-4x4-------|
A----------------------------------------------------------------5x2---|
E----------------------------------------------------------------------|

[Chorus]

Outro:
e--------------|
B--------------|
G----4---------|
D--5---5-4-5---|
A--------------|
E--------------|x8



-------------------------------------------------------------------------------
                             DROP DEAD GORGEOUS - Short Stack
-------------------------------------------------------------------------------

Tuning: Drop D


Intro:
e|----------------------------------------------------------------------------|
B|----------------------------------------------------------------------------|
G|----------------------------------------------------------------------------|
D|--8~---88-88--33-33--1010-1010--11-11-3--88-88--33-33--1010-1010--11-11-3---|
A|--8~---88-88--33-33--1010-1010--11-11-3--88-88--33-33--1010-1010--11-11-3---|
E|--8~---88-88--33-33--1010-1010--11-11-3--88-88--33-33--1010-1010--11-11-3---|

(They're 10's & 1's)


Verse:
"Baby, everything you say say..."
e|------------------------------------------------------------------------------|
B|------------------------------------------------------------------------------|
G|------------------------------------------------------------------------8-----|
D|--88-88-8--33-33-3--1010-1010-10--11-11-3---88--------------------------8-----|
A|--88-88-8--33-33-3--1010-1010-10--11-11-3---88--------------------------6x8---|
E|--88-88-8--33-33-3--1010-1010-10--11-11-3---88-88-8--33-33-3--10-10-10--------|

e|-------------------------------------------------------------------------------------|
B|-------------------------------------------------------------------------------------|
G|------------------8-7-8-10---------------------8-7-8-10---------10--10--10--10--10---|
D|--8----3----10----8-7-8-10--8-8----3----10-----8-7-8-10--8~---78--78--78--78--78-----|
A|--8----3----10----6-5-6--8--8-8----3----10-----6-5-6--8--8~--------------------------|
E|--8x8--3x8--10x8------------8-8x8--3x8--10x10------------8~--------------------------|



Chorus:
e|--------------------------------------------|
B|--------------------------------------------|
G|-------7----8----------7----8---------------|
D|--8----7----8-----8----7----8-----8~--8-8---|
A|--8----5x8--6x16--8----5x8--6x16--8~--8-8---|
E|--8x8-------------8x8-------------8~--8-8---|


Solo:
e|----------------------|
B|----------------------|
G|----------------8x8---|
D|---8x8-----10x8-------|
A|-------8x8------------|
E|----------------------| x2


Verse:
"Baby, everything you do do..."
e|---------------------------------------------------------------------------------|
B|---------------------------------------------------------------------------------|
G|----------------88----------------8~----------------------------------8-7-8-10---|
D|--88--33--1010--88--88--33--1010--8~--88-88-8--33-33-3--1010-1010-10--8-7-8-10---|
A|--88--33--1010--66--88--33--1010--6~--88-88-8--33-33-3--1010-1010-10--6-5-6--8---|
E|--88--33--1010------88--33--1010------88-88-8--33-33-3--1010-1010-10-------------|

e|-----------------------------------------------------------------------|
B|-----------------------------------------------------------------------|
G|---------------------------------8-7-8-10---------10--10--10--10--10---|
D|--8-88-8--33-33-3--1010-1010-10--8-7-8-10--8~---78--78--78--78--78-----|
A|--8-88-8--33-33-3--1010-1010-10--6-5-6--8--8~--------------------------|
E|--8-88-8--33-33-3--1010-1010-10------------8~--------------------------|



[Chorus]



"Hope you watch me hit that high..."
e|----------------------------------------------------------------------------------------|
B|----------------------------------------------------------------------------------------|
G|----------------------------------------------------------------------------------------|
D|--88-88-8--33-33-3--1010-1010-10--11-11---88-88-8--33-33-3--1010-1010-10--11-11-1--8~---|
A|--88-88-8--33-33-3--1010-1010-10--11-11---88-88-8--33-33-3--1010-1010-10--11-11-1--8~---|
E|--88-88-8--33-33-3--1010-1010-10--11-11---88-88-8--33-33-3--1010-1010-10--11-11-1--8~---|



Last Chorus:
e|----------------------|
B|----------------------|
G|----------------8-----|
D|--8--3----10----8-----|
A|--8--3----10----6x8---|
E|--8--3x8--10x8--------|

e|------------------------|
B|------------------------|
G|------------------8-----|
D|--8----3----10----8-----|
A|--8----3----10----6x8---|
E|--8x8--3x8--10x8--------| x3



-------------------------------------------------------------------------------
                             COUNTING THE STARS - Short Stack
-------------------------------------------------------------------------------
Tabbed by: Olivia Cooper
E-mail: ooliviaae@gmail.com

Tuning: Standard


Verse:
"Let's keep this..."
e|-------------------------|
B|-------------------------|
G|-------------------------|
D|-------------------------|
A|-------------------------|
E|--7x12--5x12--3x12--5~---|
    x     x     x 

"So, this is the part at the end of act one..."
e|---------------------------|
B|---------------------------|
G|---------------------------|
D|--------------------7------|
A|--------------------7------|
E|--7x12--5x12--3x12--5x12---|


Chorus:
e|-------------------------------------------------|
B|-------------------------------------------------|
G|--7------------------------------4----6----9-----|
D|--7-----7-----5----4----5---7----4----6----9-----|
A|--5x12--7-----5----4----5---7----2x3--4x3--7x3---|
E|--------5x12--3x6--2x3--3x3-5x3------------------| x2


Riff:
e|--x---x---x---x-----|
B|--x---x---x---x-----|
G|--7x8-6x8-9x8-7x3---|
D|--x---x---x---x-----|
A|--x---x---x---x-----|
E|--x---x---x---x-----|


[Verse]


"So, this is the part at the end of act one..."
e|---------------------------|
B|---------------------------|
G|---------------------------|
D|--------------------7------|
A|--------------------7------|
E|--7x12--5x12--3x12--5x4----|



[Chorus]


Bridge:
e|------------------------------------------|
B|------------------------------------------|
G|----------------------------------4-6-9---|
D|--9-9-9-9----7-7-7-7----5-5-4-5-7-4-6-9---|
A|--9-9-9-9----7-7-7-7----5-5-4-5-7-2-4-7---|
E|--7-7-7-7x3--5-5-5-5x3--3-3-2-3-5---------|


[Chorus]


e|------------------------------------------|
B|------------------------------------------|
G|----------------------------------4-6-9---|
D|--9-9-9-9----7-7-7-7----5-5-4-5-7-4-6-9---|
A|--9-9-9-9----7-7-7-7----5-5-4-5-7-2-4-7---|
E|--7-7-7-7x3--5-5-5-5x3--3-3-2-3-5---------|


End with:
e|-------------|
B|-------------|
G|--7~-6~-9~---|
D|-------------|
A|-------------|
E|-------------|



-------------------------------------------------------------------------------
                             BEFORE ANGELS FALL - Short Stack
-------------------------------------------------------------------------------

Tuning: Standard


Intro:
e|--xxxxx-------------------------xxxxx----------|
B|--xxxxx-------------------------xxxxx----------|
G|--xxxxx--7-------------9--------xxxxx--7-------|
D|--xxxxx--7-77--7---6---9---4----xxxxx--7-77~---|
A|--xxxxx--5-77--7---6---7x4-4----xxxxx--5-77~---|
E|--xxxxx----55--5x6-4x4-----2x8--xxxxx----55~---|


Verse:
"Wouldn't you think I'd have a chance..."
e|------------------------------------------------------|
B|------------------------------------------------------|
G|-----------------7-7---------------7-------77-44-77---|
D|--7-7---6---4----7-7--7-7-6-6-4-4--7----44-77-44-77---|
A|--7-7---6---4----5-5--7-7-6-6-4-4--5x8--44-55-22-55---|
E|--5-5x6-4x8-2x8-------5-5-4-4-2-2-------22------------|
      x   x   x


Chorus:
"I'll lay you down tonight..."
e|---------------------------------------------------------|
B|---------------------------------------------------------|
G|------------9---------7--------------9---------7---------|
D|--7----6----9----4----7----7----6----9----4----7----7~---|
A|--7----6----7x4--4----5x8--7----6----7x4--4----5x8--7~---|
E|--5x8--4x4-------2x8-------5x8--4x4-------2x8-------5~---|


Intro:
e|-------------------xxxxx----------|
B|-------------------xxxxx----------|
G|----------9--------xxxxx--7-------|
D|--7---6---9---4----xxxxx--7-77~---|
A|--7---6---7x4-4----xxxxx--5-77~---|
E|--5x8-4x4-----2x8--xxxxx----55~---|


Verse:
"You swear I've got rad hair..."
e|------------------------------------------------------|
B|------------------------------------------------------|
G|-----------------7-7---------------7-------77-44-77---|
D|--7-7---6---4----7-7--7-7-6-6-4-4--7----44-77-44-77---|
A|--7-7---6---4----5-5--7-7-6-6-4-4--5x8--44-55-22-55---|
E|--5-5x6-4x8-2x8-------5-5-4-4-2-2-------22------------|
      x   x   x


Chorus:
"I'll lay you down tonight..."
e|-----------------------------------------------------|
B|-----------------------------------------------------|
G|------------9---------7--------------9---------7-----|
D|--7----6----9----4----7----7----6----9----4----7-----|
A|--7----6----7x4--4----5x8--7----6----7x4--4----5x8---|
E|--5x8--4x4-------2x8-------5x8--4x4-------2x8--------| x3


Bridge:
"One kiss before angels fall..."
e|------------------------------------------------------|
B|------------------------------------------------------|
G|-------7----6----4----11----14-------77-44-77-7-7-----|
D|--4----7----6----4----11----14----44-77-44-77-7-7-7---|
A|--4----5x8--4x8--2x8---9x8--12x8--44-55-22-55-5-5-7---|
E|--2x8-----------------------------22--------------5---|



Chorus:
"I'll lay you down tonight..."
e|-----------------------------------------------------|
B|-----------------------------------------------------|
G|------------9---------7--------------9---------7-----|
D|--7----6----9----4----7----7----6----9----4----7-----|
A|--7----6----7x4--4----5x8--7----6----7x4--4----5x8---|
E|--5x8--4x4-------2x8-------5x8--4x4-------2x8--------| x3

Finish With:
e|-----------------|
B|-----------------|
G|-----77-44-77\---|
D|--44-77-44-77\---|
A|--44-55-22-55\---|
E|--22-------------|



-------------------------------------------------------------------------------
                             ONE STEP CLOSER - Short Stack
-------------------------------------------------------------------------------

Tuning: Drop D


Intro:
e|--------------------------------------------------------------------------|
B|--------------------------------------------------------------------------|
G|----------8-88-8888----------6-66-6666---------------------------6--6-6---|
D|--66-666--8-88-8888--33-333--6-66-6666--66-666--1-11-1111--33-3336--6-6---|
A|--66-666--6-66-6666--33-333--4-44-4444--66-666--1-11-1111--33-3334--4-4---|
E|--66-666-------------33-333-------------66-666--1-11-1111--33-333---------|

e|----------------------------------------------------------------------------|
B|----------------------------------------------------------------------------|
G|---------8-88-8888----------66-55-66---------------------------6--6-6-------|
D|--66-666-8-88-8888--33-333--66-55-66--66-666--1-11-1111--33-3336--6-6--6~---|
A|--66-666-6-66-6666--33-333--44-33-44--66-666--1-11-1111--33-3334--4-4--6~---|
E|--66-666------------33-333------------66-666--1-11-1111--33-333--------6~---|


Verse:
"Time to show her..."
e|--------------------------------------------------------------------------|
B|--------------------------------------------------------------------------|
G|--6------6-6-----------8-8-----------6-6-------------------------6-6------|
D|--6-6\---6-6----6-6----8-8----3-3----6-6----6-6----1-1---1-3-3---6-6------|
A|--4-6\---4-4x8--6-6----6-6x7--3-3----4-4x7--6-6----1-1---1-3-3---4-4x8----|
E|----6\----------6-6x5---------3-3x5---------6-6x5--1-1x4-1-3-3x7----------|
             x      x      x      x      x      x      x       x     x    


Chorus:
e|---------------------------------------------------------------------------|
B|---------------------------------------------------------------------------|
G|------8-------6--------8-------6---------8-------6--------8-------6---6\---|
D|--6---8---3---6----6---8---3---6-----6---8---3---6----6---8---3---6---6\---|
A|--6---6x8-3---4x8--6---6x8-3---4x8---6---6x8-3---4x8--6---6x8-3---4x7-4\---|
E|--6x8-----3x8------6x8-----3x8-------6x8-----3x8------6x8-----3x8----------|
                                       x   x   x   x    x   x   x   x


1st Solo:
e|-----------------------------|
B|-----------------------------|
G|------58888865----56-6-6-----|
D|--6668-----------8------6~---|
A|--------------888------------|
E|-----------------------------|



Chorus:
e|-------------------------------------|
B|-------------------------------------|
G|------8-------6--------8-------6-----|
D|--6---8---3---6----6---8---3---6-----|
A|--6---6x8-3---4x8--6---6x8-3---4x8---|
E|--6x8-----3x8------6x8-----3x8-------| x2

e|----------------------------------------|
B|----------------------------------------|
G|------8-------6--------8-------6---6\---|
D|--6---8---3---6----6---8---3---6---6\---|
A|--6---6x8-3---4x8--6---6x8-3---4x7-4\---|
E|--6x8-----3x8------6x8-----3x8----------|
    x   x   x   x    x   x   x   x



2nd Solo:
e|-----------------------------------------------------------------|
B|------58888865----566655565-655655658558558565565565-855865------|
G|--6668-----------8-----------------------------------------86~---|
D|--------------888------------------------------------------------|
A|-----------------------------------------------------------------|
E|-----------------------------------------------------------------|

"Dodo do do do do..."
e|-----------------------------------------------------------------------------|
B|-----------------------------------------------------------------------------|
G|------------------------------------------------------------------------6\---|
D|--6-6\---6------66-66-5-66-66-5-66-66-5-66-66-5-66-66-5-66-66-5-66-66-5-6\---|
A|--6-6\---6------66-66-5-66-66-5-66-66-5-66-66-5-66-66-5-66-66-5-66-66-5-4\---|
E|--6-6\---6x64---66-66-5-66-66-5-66-66-5-66-66-8-66-66-5-66-66-5-66-66-5------|
           x


Last Chorus:
e|-------------------------------------|
B|-------------------------------------|
G|------8-------6--------8-------6-----|
D|--6---8---3---6----6---8---3---6-----|
A|--6---6x8-3---4x8--6---6x8-3---4x8---|
E|--6x8-----3x8------6x8-----3x8-------| x3


Finish With:
e|-------|
B|-------|
G|-------|
D|--6~---|
A|--6~---|
E|--6~---|



-------------------------------------------------------------------------------
                             IT'S4U - Short Stack
-------------------------------------------------------------------------------

Tuning: Standard

Intro:
Guitar 1 (Lead)
e|------------------------------------|
B|--66-8-9-----8-9-----8-9-----9-8-6--|
G|---------999-----777-----999--------|
D|------------------------------------|
A|------------------------------------|
E|------------------------------------| x2

Guitar 2
e|--------------------------|
B|--------------------------|
G|--6-----------9-----------|
D|--6-----7-----9-----9-----|
A|--4-x8--7-----7-x8--9-----|
E|--------5-x8--------7-x8--|


[Verse is silent]


Pre-Chorus:
"So come on let me stay with you..."
e|--------------------------|
B|--------------------------|
G|--6-----------9-----------|
D|--6-----7-----9-----9-----|
A|--4-x8--7-----7-x8--9-----|
E|--------5-x8--------7-x8--| x2 
    x     x     x     x 

Chorus:
e|---------------------------------------------------------|
B|---------------------------------------------------------|
G|--6-----------9------------6-----------------------------|
D|--6-----7-----9-----9------6-----99-111111-1313-11-9-11--|
A|--4-x8--7-----7-x8--9------4-x8--99-111111-1313-11-9-11--|
E|--------5-x8--------7-x8---------77--9-9-9-1111--9-7--9--|

e|--------------------------|
B|--------------------------|
G|--6-----------9-----------|
D|--6-----7-----9-----9-----|
A|--4-x8--7-----7-x8--9-----|
E|--------5-x8--------7-x8--| x2


Intro (Main Riff):
Guitar 1
e|------------------------------------|
B|--66-8-9-----8-9-----8-9-----9-8-6--|
G|---------999-----777-----999--------|
D|------------------------------------|
A|------------------------------------|
E|------------------------------------|

e|-------------------------------------------------------------|
B|--66-8-9-----8-9-----9-9--11-11-11--13-13-13--11-11-11-6-6~--|
G|---------999-----7-------------------------------------------|
D|-------------------------------------------------------------|
A|-------------------------------------------------------------|
E|-------------------------------------------------------------|

Guitar 2
e|------------------------------|
B|------------------------------|
G|--6-----------9-----------6~--|
D|--6-----7-----9-----9-----6~--|
A|--4-x8--7-----7-x8--9-----4~--|
E|--------5-x8--------7-x8------|


[Verse is silent]

[Pre-Chorus]

[Chorus]


Bridge (Solo):
e|----------------------------------------------------------------------------------|
B|----------------------------------------------------------------------------------|
G|--6-8-9-8-6---8-9-8-6---88-9-----9/11-9-8---6-8-9-8-6---8-9-8-6---88-9-----9-8-6--|
D|------------9---------7------999----------------------9---------7------999--------|
A|----------------------------------------------------------------------------------|
E|----------------------------------------------------------------------------------|


[Chorus x2]


Finish with:
e|------|
B|------|
G|--6~--|
D|--6~--|
A|--4~--|
E|------|



-------------------------------------------------------------------------------
                             17 (Solo) - Short Stack
-------------------------------------------------------------------------------
Tabbed by: Olivia Cooper
E-mail: ooliviaae@gmail.com

Tuning: Standard


e|-----------------------------------------------------------------------------------------|
B|--11-13b--13-11----------13-11b--13-11----------16---------------------------------------|
G|----------------13-10-13---------------13-10-13----13b\--13-16----------------13---------|
D|---------------------------------------------------------------13-15-13-13-15----15-13---|
A|-----------------------------------------------------------------------------------------|
E|-----------------------------------------------------------------------------------------|

e|--16-16\--------------------------------------------------------------------------|
B|----------13-13-16-13-11b\--13-13-13----------------------------------------------|
G|-------------------------------------13-15-------13-14-16-14-13-------13-13-------|
D|-------------------------------------------15b\-----------------13-15-------13~---|
A|----------------------------------------------------------------------------------|
E|----------------------------------------------------------------------------------|



-------------------------------------------------------------------------------
                             We All Know - Short Stack
-------------------------------------------------------------------------------

Tuning: Standard


Intro:
e|--------------------------------------------------------------------|
B|--------------------------------------------------------------------|
G|--9-8----9-8----9-8-9-8-9-8-9-8--9-8----9-8-11--9-8-9-8-9-8-9-8-----|
D|--9-8-9--9-8-9--9-8-9-8-9-8-9-8--9-8-9--9-8-11--9-8-9-8-9-8-9-8-9---|
A|--7-6-9--7-6-9--7-6-7-6-7-6-7-6--7-6-9--7-6--9--7-6-7-6-7-6-7-6-9---|
E|------7------7-----------------------7--------------------------7---|


Verse:
"Excuse me..."
e|------------------------------------------|
B|------------------------------------------|
G|------------------------------------------|
D|--11----11----9---9----7---7----2---2-----|
A|--11----11----9---9----7---7----2---2-----|
E|---9x4---9x4--7x4-7x4--5x4-5x4--0x4-0x4---|

e|------------------------------------------|
B|------------------------------------------|
G|------------------------------------------|
D|--11----11----9---9----7---7----9---9-----|
A|--11----11----9---9----7---7----9---9-----|
E|---9x4---9x4--7x4-7x4--5x4-5x4--7x4-7x4---|


Chorus:
e|----------------------------|
B|----------------------------|
G|---------9------------------|
D|--11-----9-----9-----7------|
A|--11-----7x16--9-----7------|
E|---9x16--------7x16--5x16---|


[Intro]

[Verse]

[Chorus]

[Chorus]x2



-------------------------------------------------------------------------------
                             THICK AS THIEVES - Short Stack
-------------------------------------------------------------------------------

Tuning: Standard

Sorry I haven't worked this song out yet! It will be done soon tho! 
Thinking of doing this song for my next guitar cover on YouTube. Check out my channel :) Stack Kid Liv
Добавлено: 19.10.2015
Другие материалы по этой песне:
  • Аккорды и текст

Страница создана 19.10.2015
http://primanota.ru/short-stack/stack-is-new-black-album-chords.htm
Привет, Гость.
Предлагаем пройти революционный курс по гитаре.
Подарок от PrimaNota.Ru, забирай!