PrimaNota.ru - самый крупный в мире бесплатный архив песенных текстов, аккордов, табулатур и нот


Short Stack - Homecoming (album) - таба, видео

Регистрация Запомнить меня
Войти через:  Facebook Google Twitter Vk Yandex Mail.ru

Short Stack - Homecoming (album) - таба, видео

Печатать
Просмотров: 131
Уроки эстрадного вокала в Санкт-Петербурге
~~~~~~~~~~~~~~~~~~~~~~~~~~~~~~~~~~~~~~~~~~~~~~~~~~~~~~~~~~~~~~~~~~~~~~~~~~~~~~~
                              HOMECOMING ALBUM
~~~~~~~~~~~~~~~~~~~~~~~~~~~~~~~~~~~~~~~~~~~~~~~~~~~~~~~~~~~~~~~~~~~~~~~~~~~~~~~
Tabbed by: Olivia Cooper
E-mail: ooliviaae@gmail.com

Heya :D I'm still working on figuring out all the tabs to this album! So bare with me :)
Do you guys like the album? If you do let me know :)
Also, if you have any Short Stack tab requests, message me what it is! :P Thanks!

-------------------------------------------------------------------------------
                             DANCE WITH ME - Short Stack
-------------------------------------------------------------------------------

Tuning: Standard

Intro:
"And when I run out of words to say..."

E|------8~------------------------------------------------------------|
B|------8~---8~--11~--------------------------------------------------|
G|--8~--8~---8~--12~--------------------------------------------------|
D|--8~--6~---8~--12~--------------------------------------------------|
A|--6~-------6~--10~--------------------------------------------------|
E|--------------------------------------------------------------------|

"So why don't you wanna dance with me tonight?"
E|---------------------------|----------------------------------------|
B|---------------------------|----------------------------------------|
G|--8------------------------|---8------------------------------------|
D|--8------------------------|---8------------------------------------|
A|--6-x9---------------------|---6-x9---------------------------------|
E|---------x2----------------|------------x2--------------------------| Listen to how Shaun plays it


Verse:
"It makes me lose my mind"
E|--------------|
B|--------------|
G|--8-----------|
D|--8-----------|
A|--6-x9--------|
E|---------x2---|

"Then here with you tonight"
E|--------------------|
B|--------------------|
G|--8------8-----7----|
D|--8------8-----7----|
A|--6-x9---6x8--5x8---|
E|--------------------|



Chorus:
"And when I run out of words to say..."
E|--------------------------------------------------------------------|
B|--------------------------------------------------------------------|
G|----------8---------------------------------------------------------|
D|--6-------8-------10-------8~---------------------------------------|
A|--6-------6-x32---10-------8~---------------------------------------|
E|--4-x32------------8-x32---6~---------------------------------------|


"So why don't you wanna dance with me tonight?"
E|---------------------------|----------------------------------------|
B|---------------------------|----------------------------------------|
G|--8------------------------|---8------------------------------------|
D|--8------------------------|---8------------------------------------|
A|--6-x9---------------------|---6-x9---------------------------------|
E|---------x2----------------|------------x2--------------------------|


[Verse]

[Chorus]


Bridge:
"La da da, da da da da da da"

Guitar 1:
E|-------------------------------------------------------------------|
B|----------------------------------------------8--------------------|
G|-8-8-8--------8-8-8--------8-8-8----------8-8----------------------|
D|---------8-10---------8-10---------8-10---------8-10---------------|
A|-------------------------------------------------------------------|
E|-------------------------------------------------------------------| x2
   x x x   x x  x x x   x x  x x x   x x    x x x x x
Guitar 2:
*wait for the "Hey!" to play this part*

E|-------------------------------------------------------------------|
B|-------------------------------------------------------------------|
G|--8~---------------------------------------------------------------|
D|--8~---------------------------------------------------------------|
A|--6~---------------------------------------------------------------|
E|-------------------------------------------------------------------|



Before Chorus:

E|-------------------------------------------------------------------|
B|-------------------------------------------------------------------|
G|--8~--10~--12~--13~--15~-------------------------------------------|
D|--8~--10~--12~--13~--15~-------------------------------------------|
A|--6~---8~--10~--11~--13~-------------------------------------------|
E|-------------------------------------------------------------------|



Chorus 2:
"And your pretty little lips..."
E|-------------------------------------------------------------------|
B|-------------------------------------------------------------------|
G|-----------8-------------------------------------------------------|
D|--6--------8--------10--------8------10-----12-----15--------------|
A|--6--------6-x32----10--------8------10-----12-----15--------------|
E|--4-x32--------------8-x32----6-x8---8-x8---10-x8--13-x8-----------|


[Chorus]
 

Outro:
E|-------------------------------------------------------------------|
B|----------------8-------8\-----------------------------------------|
G|--8-------------8-------8\-----------------------------------------|
D|--8-------------8-------8\-----------------------------------------|
A|--6-x9----------6-x8----6\-----------------------------------------|
E|---------x2--------------------------------------------------------|


-------------------------------------------------------------------------------
                             ELVIS - Short Stack
-------------------------------------------------------------------------------

Tuning: Standard

In progress :P


-------------------------------------------------------------------------------
                             GRAVITY - Short Stack
-------------------------------------------------------------------------------

Tuning: Standard

Intro (Verse):
e|---------------------------------------|
B|----------------------------13---------|
G|--13-12----10-8-------13-12------------|
D|--------10------10-8-----------10-12---|
A|---------------------------------------|
E|---------------------------------------|x3


Chorus:
"Gravity..."

Guitar 1:
e|---------------------------------------------------------------------------|
B|---------------------------------------------------------------------------|
G|----------6~-6~------------------------------------------------------------|
D|--6~--6~--6~-6~------------------------------------------------------------|
A|--6~--6~--4~-4~------------------------------------------------------------|
E|--4~--4~-------------------------------------------------------------------|

Guitar 2:
e|---------------------------------------------------------------------------|
B|---------------------------------------------------------------------------|
G|---------------------------------------------------------------------------|
D|---------------------------------------------------------------------------|
A|---------------------------------------------------------------------------|
E|---------------------------------------------------------------------------| << Need to figure this out sorry 


Verse:
e|---------------------------------------|
B|----------------------------13---------|
G|--13-12----10-8-------13-12------------|
D|--------10------10-8-----------10-12---|
A|---------------------------------------|
E|---------------------------------------|x2

e|--------------------------------------------------------------|
B|------6-6----8-8------9-9-13-13-9-9--------6-6-----8-8-9x32---|<(you could pick it 16x instead at half speed)
G|----6------8-------10--------------------6-------8------------|
D|--------------------------------------------------------------|
A|--4------6-------8---------------------4-------6--------------|
E|--------------------------------------------------------------|


[Chorus]


Solo:
e|---------------------------------------------------------|
B|--------------/13-13x2-13x3-------------/13-13-11-11-9---|
G|--/10-10-10x3---------------/10-10-10x3------------------|
D|---------------------------------------------------------|
A|---------------------------------------------------------|
E|---------------------------------------------------------|

e|---------------------------------------------------------|
B|--------------/13-13x2-13x3-------------/13-13-11-11-9---|
G|---------------------------------------------------------|
D|--/11-11-11x3---------------/11-11-11x3------------------|
A|---------------------------------------------------------|
E|---------------------------------------------------------|

e|---------------------------------------------------------|
B|--------------/13-13x2-13x3-------------/13-13-11-11-9---|
G|--/10-10-10x3---------------/10-10-10x3------------------|
D|---------------------------------------------------------|
A|---------------------------------------------------------|
E|---------------------------------------------------------|

e|----------------------------------------|
B|--/14x4-13x3-----------/14x4-13x3-16b---|
G|-------------10x3-8x4-------------------|
D|----------------------------------------|
A|----------------------------------------|
E|----------------------------------------|


Pre-Chorus:
e|--------------------------------------------------------------|
B|------6-6----8-8------9-9-13-13-9-9--------6-6-----8-8-9x26---|
G|----6------8-------10--------------------6-------8------------|
D|--------------------------------------------------------------|
A|--4------6-------8---------------------4-------6--------------|
E|--------------------------------------------------------------|


[Chorus]


Outro:
"All I wanna do is die alone with you..."
e|-----------------------------------------------------------------|
B|-----------------------------------------------------------------|
G|--13-13-13-13-13x4-12-12-12-------10-10-10-10-8x4----------------|
D|----------------------------10-10-----------------10-10-10-8-8---|
A|-----------------------------------------------------------------|
E|-----------------------------------------------------------------|

e|-----------------------------------------------------------------------|
B|----------------------------13-13--------------------------------------|
G|--13-13-13-13-13x4-12-12-12------10-10-10-10x2-13-15-13-12-13-12-10~---|
D|-----------------------------------------------------------------------|
A|-----------------------------------------------------------------------|
E|-----------------------------------------------------------------------|

e|--------------------------------------------------------------|
B|------6-6----8-8------9-9-13-13-9-9--------6-6-6/8-----8-9~---|
G|----6------8-------10--------------------6---------8----------|
D|-----------------------------------------------------8--------|
A|--4------6-------8---------------------4----------------------|
E|--------------------------------------------------------------|


-------------------------------------------------------------------------------
                             HOMECOMING - Short Stack
-------------------------------------------------------------------------------

Tuning: Standard


Intro:
Guitar 1 (Lead):
e|-------------------------------------|
B|-------------------------------------|
G|-------------------------------------|
D|----------------------9--------------|
A|--4-9-11-9---9-11-9-7---7-6-9-11-7---|
E|-----------5-------------------------|x4 You gotta strum when you play these frets and it's more then once :)

Guitar 2 (Rhythm): come in after "with nothing in between..."
e|------|
B|------|
G|--6---|
D|--6---|
A|--4---|
E|------|continuous

Pre-Chorus: after "I missed you oh so much"
e|------------------------------|
B|------------------------------|
G|--6---------------------------|
D|--6----7---7---7---9---9-----|
A|--4x2--7---7---7---9---9-----|
E|-------5x2-5x2-5x2-7x2-7x3---|


Chorus:
"Wooooh..."
e|-------------------------------------------|
B|-------------------------------------------|
G|--6---------9----8-----6---------9---------|
D|--6----7----9----8-----6----7----9----6~---|
A|--4x16-7----7x16-6x16--4x16-7----7x16-6~---|
E|-------5x16-----------------5x16------4~---|

Instrumental:
Guitar 1:
e|-------------------------------------|
B|-------------------------------------|
G|-------------------------------------|
D|----------------------9--------------|
A|--4-9-11-9---9-11-9-7---7-6-9-11-7---|
E|-----------5-------------------------|

Guitar 2:
e|------------------------------------------------|
B|------------------------------------------------|
G|--6---------9----8-----6---------9---------6~---|
D|--6----7----9----8-----6----7----9----6----6~---|
A|--4x16-7----7x16-6x16--4x16-7----7x16-6----4~---|
E|-------5x16-----------------5x16------4x16------|x2

*Only bass for verse*

Pre-Chorus:
e|-------------------------------|
B|-------------------------------|
G|--6---6---6---6---8---8---8~---|
D|----4---4---4---4---5---6------|
A|-------------------------------|
E|-------------------------------|

Chorus:
e|--------------------------------------------------|
B|--------------------------------------------------|
G|--6---------9----8-----6---------9---------6------|
D|--6----7----9----8-----6----7----9----6----6------|
A|--4x16-7----7x16-6x16--4x16-7----7x16-6----4x16---|
E|-------5x16-----------------5x16------4x16--------|


Bridge:
e|---------------------------------------------------|
B|---------------------------------------------------|
G|--6---8---9---16---13----11-----6---8---9---16-----|
D|--6---8---9---16---13----11-----6---8---9---16-----|
A|--4x8-6x8-7x8-14x8-11x16--9x16--4x8-6x8-7x8-14x8---|
E|---------------------------------------------------|

e|-------------------------------------------------|
B|-------------------------------------------------|
G|--13---14---15---16---17---18---19---20---21~\---|
D|--13---14---15---16---17---18---19---20---21~\---|
A|--11x4-12x4-13x4-14x4-15x4-16x4-17x4-18x4-19~\---|
E|-------------------------------------------------|


Riff:
Guitar 1:
e|-------------------------------------|
B|-------------------------------------|
G|-------------------------------------|
D|----------------------9--------------|
A|--4-9-11-9---9-11-9-7---7-6-9-11-7---|
E|-----------5-------------------------|x2

Guitar 2 (Rhythm): come in on the second time
e|------|
B|------|
G|--6---|
D|--6---|
A|--4---|
E|------|continuous

Guitar 2: on last four notes
e|----------------|
B|----------------|
G|--11-13--11-9---|
D|---x--x---x-x---|
A|---9-11---9-7---|
E|----------------|


Chorus:
e|---------------------------------------------|
B|---------------------------------------------|
G|--6---------9----8-----6---------9-----------|
D|--6----7----9----8-----6----7----9----6------|
A|--4x16-7----7x16-6x16--4x16-7----7x16-6------|
E|-------5x16-----------------5x16------4x16---|

e|-----------------------------------------------------|
B|-----------------------------------------------------|
G|--6---------9----8-----6---------9--------------6~---|
D|--6----7----9----8-----6----7----9----6---6-6-6-6~---|
A|--4x16-7----7x16-6x16--4x16-7----7x16-6---6-6-6-4~---|
E|-------5x16-----------------5x16------4x8-4-4-4------|


-------------------------------------------------------------------------------
                             BAMBI - Short Stack
-------------------------------------------------------------------------------

Tuning: Standard


Verse
Guitar 1:
e|---------------------------------|
B|--6---8---9----6---8---9---13-9--|
G|--5---7---8----5---7---8---12-8--|
D|--3x2-5x2-6x4--3x2-5x2-6x2-10-6--|
A|---------------------------------|
E|---------------------------------|x6

Guitar 2:
e|------------------------------|
B|------------------------------|
G|--6---8---10----6---8---10----|
D|--6---8---10----6---8---10----|
A|--4x2-6x2--8x4--4x2-6x2--8x3--|
E|------------------------------|x6

Guitar 3:
(Joins in on last time)
e|----------------------------------------------------------------------------------------|
B|----------------------------------------------------------------------------------9xx9--|
G|--10xx10xx10xx10xx1010xx10xx10-10xx10xx10xx10xx1010xx10xx10-10xx10xx10xx10xx1010xx------|
D|----------------------------------------------------------------------------------------|
A|----------------------------------------------------------------------------------------|
E|----------------------------------------------------------------------------------------|
With this part ^^ Just play what sounds right on the note.


Chorus:
e|--------------------------------------------------------------------------------|
B|--------------------------------------------------------------------------------|
G|--6~-8~-5~-10~-8~--6~-8~-5~-10~-8~--6---8---5---10---8----6---8---5---19---8----|
D|--6~-8~-5~-10~-8~--6~-8~-5~-10~-8~--6---8---5---10---8----6---8---5---10---8----|
A|--4~-6~-3~--8~-6~--4~-6~-3~--8~-6~--4x8-6x8-3x8--8x4-6x4--4x8-6x8-3x8--8x4-6x4--|
E|--------------------------------------------------------------------------------|

[Verse]

{Chorus}

Bridge: (Tempo change)

e|----4----3----8------|
B|------------------6--|
G|---------------------|
D|--33-3\11-1/66-6-----|
A|----------------44---|
E|---------------------|x4

e|----464------464------464------46864---|
B|--66---644-66---64\-66---644-66-----6--|
G|---------------------------------------|
D|---------------------------------------|
A|---------------------------------------|
E|---------------------------------------|

[Chorus]x2

End With:
e|------|
B|--9~--|
G|--8~--|
D|--6~--|
A|------|
E|------|


-------------------------------------------------------------------------------
                             AMY - Short Stack
-------------------------------------------------------------------------------

Guitar 1: Rhythm
Guitar 2: Lead 

Tuning: Standard


Verse:
"I spent all last night on the telephone..."

Guitar 1: (Clean)
e|---------------|---------------|
B|---------------|---------------|
G|--9------------|----9----------|
D|--x------------|--7-x-9-7------|
A|--7(continuous)|--7-7-9-7------|
E|---------------|--5---7-5------|(Strumming is weird :P)

Guitar 2: Start when drums kick in (Clean)
e|---------------|
B|--9~--9~--9~---|
G|--9~--9~--9~---|
D|--x---x---x----|
A|--7~--7~--7~---|
E|---------------|


Chorus:
"It's what you do to me..."

Guitar 1:
e|---------------------------------------------------xx-------xx-------|
B|---------------------------------------------------xx-------xx-------|
G|--------4-----6-----------------4-----6------------xx-------xx-------|
D|--2-----4-----6-----7------2----4-----6-----7------xx--7----xx--7\---|
A|--2x16--2x16--4x16--7------2----2x16--4x16--7------xx--7----xx--7\---|
E|--0-----------------5x16---0x16-------------5x16---xx--5x3--xx--5\---|

Guitar 2:
e|------------------------------------------------------|
B|--9-7-9-------9-7-9-------9-7-9-------10-9-----10-9---|
G|--------9-8-9-------9-8-9-------9-8-9------9-9--------|
D|------------------------------------------------------|
A|------------------------------------------------------|
E|------------------------------------------------------| x2

End with
e|--------------|
B|--10-9--------|
G|-------9-9\---|
D|--------------|
A|--------------|
E|--------------|

Before Verse:
e|------|
B|------|
G|--9---|
D|--x---|
A|--7---|
E|------|


Verse:
"Spent all my cash on comic books..."
e|------|
B|------|
G|--9---|
D|--x---|
A|--7---|
E|------|

"You said you loved all that you see..."
e|---------------|
B|---------------|
G|-----9---------|
D|--7--x--9--7---|
A|--7--7--9--7---|
E|--5-----7--5---|



[Chorus]


Bridge:
"And I'm sinking like a stone..."

Guitar 1:
e|----------------------------|
B|----------------------------|
G|--9-----------9-----11------|
D|--9-----2-----x------x------|
A|--7x32--2-----7x16---9x16---|
E|--------0x32----------------|

Guitar 2:
e|--12----12----12----12----12----12----12----12------|
B|-----12----12----12----12----12----12----12----12---|
G|----------------------------------------------------|
D|----------------------------------------------------|
A|----------------------------------------------------|
E|----------------------------------------------------| x2


[Chorus]

[Verse]


End with:
e|---------------|
B|----------9~---|
G|----------9~---|
D|--9~--7~--9~---|
A|--9~--7~--7~---|
E|--7~--5~-------|


-------------------------------------------------------------------------------
                             GOLDEN BOY - Short Stack
-------------------------------------------------------------------------------

Tuning: Drop D


Intro: "1! 2! 3! 4!
e|-------------------------------------------------|
B|-------------------------------------------------|
G|-6-6-6-6-6-6-----------4--------6-6-6-6-6-6------|
D|-6-6-6-6-6-6--4----1---4---4----6-6-6-6-6-6-4\---|
A|-4-4-4-4-4-4--4----1---2x4-4----4-4-4-4-4-4-4\---|
E|--------------4x10-1x4-----4x10-------------4\---|



Solo:
e|------------------------------------------------------------------------------|
B|--------------------14-14/16-16--------------------------------16x5-14x5-16\--|
G|--/11x5-/11x5-/11x2-------------/11x5-/11x5-/15x2-13-12--/15x3----------------|
D|------------------------------------------------------------------------------|
A|------------------------------------------------------------------------------|
E|------------------------------------------------------------------------------|

e|-------------------------------------------------------|
B|--16-14----14------------------------------------------|
G|--------15----15-13-15-13-11-13-11----/16x4-15-13-11~--|
D|-----------------------------------13------------------|
A|-------------------------------------------------------|
E|-------------------------------------------------------|


-------------------------------------------------------------------------------
                             BAD RELIGION - Short Stack
-------------------------------------------------------------------------------

Tuning: Standard

Gotta work it out first D:


-------------------------------------------------------------------------------
                             PARADES - Short Stack
-------------------------------------------------------------------------------

This is on piano so I dunno how I write that down xD I do know how to play it tho B)

I'll try and do a chord version tho?


-------------------------------------------------------------------------------
                             SUBURBIA - Short Stack
-------------------------------------------------------------------------------

Tuning: Standard

Learnt it, love it, still gotta tab it xD

~~~~~~~~~~~~~~~~~~~~~~~~~~~~~~~~~~~~~~~~~~~~~~~~~~~~~~~~~~~~~~~~~~~~~~~~~~~~~~~

The acoustics are pretty much the same as their originals, just with some extra stuff added in.
I will tab them tho so don't worry!
Добавлено: 09.05.2016
Вам также может быть интересно:
Другие материалы по этой песне:
  • Аккорды и текст

Страница создана 09.05.2016
http://primanota.ru/short-stack/homecoming-album-chords.htm
Привет, Гость.
Предлагаем пройти революционный курс по гитаре.
Подарок от PrimaNota.Ru, забирай!