PrimaNota.ru - самый крупный в мире бесплатный архив песенных текстов, аккордов, табулатур и нот


Shootie Hg - Devils Never Cry - таба, видео

Регистрация Запомнить меня
Войти через:  Facebook Google Twitter Vk Yandex Mail.ru

Shootie Hg - Devils Never Cry - таба, видео

Печатать
Просмотров: 144
Tuning EADGBE


e|-------------------|
B|-------------------|
G|-------------------|  (Intro Verse Steel a soul fo a second chance)
D|-------------------|
A|-------------------|
E|--555--555--555--55|


The Break and the hardcore music

e|-----------------------------|
B|-----------------------------|
G|-----------------------------|  (During  Hardcore music Repeat twice)
D|--7-8-7--7-10-5---7-8-7------|
A|--7-8-7--7-10-5---7-8-7------|
E|--5-6-5--5-8--3---5-6-5------|


During the Verses repeat the same pattern of rhythm during Hardcore music

e|-----------------------------|
B|-----------------------------|
G|-----------------------------|  (Keep playin till the soft verses come)
D|--7-8-7--7-10-5---7-8-7------|
A|--7-8-7--7-10-5---7-8-7------|
E|--5-6-5--5-8--3---5-6-5------|


During soft verses


e|-------------------|
B|-------------------|
G|-------------------|  (Play it till the background voices come)
D|-------------------|
A|-------------------|
E|--555--555--555--55|


During background voices

e|------------------------|
B|------------------------|
G|------------------------|(Play with low volume & stop at 2nd last verse )
D|--7-8-7--7-10-5---7-8-7-|
A|--7-8-7--7-10-5---7-8-7-|
E|--5-6-5--5-8--3---5-6-5-|

That's it.
The Song is pretty rockin' if you guys think there's some changes please mail it to me 
revenant_rakat@yahoo.com & do send me the lyrics if you have them.
For better idea about playing. download the song from www.playstationpro2.com
Добавлено: 21.03.2012
Другие материалы по этой песне:
  • Аккорды и текст

Страница создана 21.03.2012
http://primanota.ru/shootie-hg/devils-never-cry-chords.htm
Привет, Гость.
Предлагаем пройти революционный курс по гитаре.
Подарок от PrimaNota.Ru, забирай!