PrimaNota.ru - самый крупный в мире бесплатный архив песенных текстов, аккордов, табулатур и нот


Shoot The Girl First - Last Lesson Be A Hero - таба, видео

Регистрация Запомнить меня
Войти через:  Facebook Google Twitter Vk Yandex Mail.ru

Shoot The Girl First - Last Lesson Be A Hero - таба, видео

Печатать
Просмотров: 129
Уроки эстрадного вокала в Санкт-Петербурге
Key:*-palm mute
    p-pulloff
    h-hammeron
    s-slide
    ~-let ring

Tuning: Drop C (CGCFAD)

Last Lesson, Be a Hero by Shoot the Girl First

email iusethisforguitartabs97


0:00-0:34
Both Guitars:
D|---------------------------------------------------|
A|-------------No Guitar During This-----------------|
F|-----------------It is all Techno------------------|
C|---------------------------------------------------|
G|---------------------------------------------------|
C|---------------------------------------------------|







0:34-0:49
Both Guitars:
D|---------------------------------------------------|
A|---------------------------------------------------|
F|---------------------------------------------------|
C|---------------------------------------------------|
G|-5555---3333-333-333----1111----3333-333-333-------|
C|---------------------------------------------------|x2
   ****   **** *** ***    ****    **** *** ***





0:49-0:56
Both Guitars:
D|---------------------------------------------------|
A|---------------------------------------------------|
F|---------------------------------------------------|
C|--7777~~---5555~~----------3333~~--5555~~~---------|
G|--5555~~---3333~~-333-333--1111~~--3333~~~-333-333-|
C|---------------------------------------------------|
    ***      ***    *** ***  ***      ***    *** ***




0:57-1:02
Both Guitars:
D|---------------------------------------------------|
A|---------------------------------------------------|
F|---------------------------------------------------|
C|---------------------------------------------------|
G|---5555---3333-333-333----1111----3333-333-333-----|
C|---------------------------------------------------|
     ****   **** *** ***    ****    **** *** ***





1:03-1:17
Guitar 1:
D|---------------------------------------------------|
A|---------------------------------------------------|
F|---------------------------------------------------|
C|-7~~~---5~~~---3~~~---5~~~-------------------------|
G|-5~~~---3~~~---1~~~---3~~~-------------------------|
C|---------------------------------------------------|x2


1:03-1:17
Guitar 2:
D|-13-12----13-12----13-12--13-12----13-12----13-12--|
A|-------15-------15--------------13-------13--------|
F|---------------------------------------------------|
C|---------------------------------------------------|   This part is quiet.
G|---------------------------------------------------|  It is composed of the 
C|---------------------------------------------------|   same notes in the
                                                      x2       piano bit.
D|-13-12----13-12----13-12--13-12----13-12----13-12--|
A|-------11-------11--------------13-------13--------|
F|---------------------------------------------------|
C|---------------------------------------------------|
G|---------------------------------------------------|
C|---------------------------------------------------|





1:18-1:32
No guitar, all piano.
If you want to know how to play this part 
go here: http://j.gs/3787716/to-piano-how-to-llbah



1:33-1:46
No guitar, Vocal solo.




1:47-2:02
Both Guitars:
D|---------------------------------------------------|
A|---------------------------------------------------|
F|---------------------------------------------------|
C|--7777~~---5555~~---------3333~~---5555~~~---------|
G|--5555~~---3333~~-333-333-1111~~---3333~~~-333-333-|
C|---------------------------------------------------|x2
    ***      ***    *** *** ***      ***     *** ***






2:03-2:16
Guitar 1:
D|---------------------------------------------------|
A|---------------------------------------------------|
F|---------------------------------------------------|
C|-7~~~---5~~~---3~~~---5~~~-------------------------|
G|-5~~~---3~~~---1~~~---3~~~-------------------------|
C|---------------------------------------------------|x2

Guitar 2:
D|---------------------------------------------------|
A|---------------------------------------------------|
F|10--10--10--10-----9----9----9----9----------------|
C|--12--12--12--12-----10---10---10---10-------------|
G|---------------------------------------------------|
C|---------------------------------------------------|
                                                      x2 This is also
D|---------------------------------------------------|   pretty quiet.
A|---------------------------------------------------|
F|-7--7--7--7---9----9----9-10-10-10-----------------|
C|--8--8--8--8----10---10----------------------------|
G|---------------------------------------------------|
C|---------------------------------------------------|





2:17-2:30
Both Guitars:
D|---------------------------------------------------|
A|---------------------------------------------------|
F|---------------------------------------------------|
C|--0------8------0------8---------------------------|
G|--0------8------0------8---------------------------|
C|--0------8------0------8---------------------------|





2:31-2:38
Both Guitars:
D|---------------------------------------------------------|
A|---------------------------------------------------------|
F|---------------------------------------------------------|
C|---------------------------------------------------------|
G|---------------------------------------------------------|
C|-0000-0-00-00-000--0-0000-0-00-00-000-00-000--0-00000000-|






2:38-2:43
Both Guitars:
D|---------------------------------------------------------|
A|---------------------------------------------------------|
F|---------------------------------------------------------|
C|---------------------------------------------------------|
G|---------------------------------------------------------|
C|-0000-0-00-00-000--0-0000-0-00-00-000-00-000-------------|



2:43-2:46
Guy talking






2:47-end of song
Both Guitars:
D|---------------------------------------------------------|
A|---------------------------------------------------------|
F|---------------------------------------------------------|
C|---------------------------------------------------------|
G|---------------------------------------------------------|
C|-0000-0-00-00-000--0-0000-0-00-00-000-00-000--0-00000000-|x2
Добавлено: 16.08.2013
Вам также может быть интересно:
Другие материалы по этой песне:
  • Аккорды и текст

Страница создана 16.08.2013
http://primanota.ru/shoot-the-girl-first/last-lesson-be-a-hero-chords.htm
Привет, Гость.
Предлагаем пройти революционный курс по гитаре.
Подарок от PrimaNota.Ru, забирай!