PrimaNota.ru - самый крупный в мире бесплатный архив песенных текстов, аккордов, табулатур и нот


Shoji Meguro - Memories Of The City Persona 3 - таба, видео

Регистрация Запомнить меня
Войти через:  Facebook Google Twitter Vk Yandex Mail.ru

Shoji Meguro - Memories Of The City Persona 3 - таба, видео

Печатать
Просмотров: 87
Уроки эстрадного вокала в Санкт-Петербурге
-------------------------------------------------------------------------------
                             Memories of the City Persona 3 - Shoji Meguro
-------------------------------------------------------------------------------
Tabbed by: jordan.nakach
E-mail: jordan.nakach@gmail.com

This song Plays near the end of the game and has a pretty cool guitar solo so i figured 
i would  share my
 tab of it.Use the actual song and play along with it to determine how fast you play 
each part. DO NOT rely on the website's
 tab player to hear how it's played. This is as accurate of a tab as I could do with 
just the song. if there are
 any errors, please do comment so that i may correct the tab. (The backslashes are 
slides that slide towards the
Body of the guitar.)
Tuning:

e|-----------------------------------------------------------------------------|
B|-----------------------------------------------------------------------------|
G|--\15~--13h15-\18-18-17-17---------------------------------------------------|
D|---------------------------18-18-15-15---------------------------------------|
A|---------------------------------------16-15h16h15---------------------------|
E|---------------------------------------------------16------------------------|

e|--------------------------------------------------------------------------------|
B|-------------------------------------13-14-\16--16p14-16-\18-14~-14p13-14-\21---|
G|----------------------------------13--------------------------------------------|
D|-------------------13-15-16-15-16-----------------------------------------------|
A|----13-15-16-15-16--------------------------------------------------------------|
E|-16-----------------------------------------------------------------------------|

e|---------------------------------------------------------------------------|
B|-21-21-21-19--18h19p18-----------------------------------------------------|
G|---------------------------------------------------------------------------|
D|---------------------------------------------------------------------------|
A|---------------------------------------------------------------------------|
E|---------------------------------------------------------------------------|

e|---------------------------------------------------------------------------|
B|---------------------------------------------------------------------------|
G|-----17-15--15-17-18--18-22-20-17--------------------17-17-15~-15-17-18~---|
D|-\15------------------------------18-16-18-16-15--15-----------------------|
A|---------------------------------------------------------------------------|
E|---------------------------------------------------------------------------|

e|---------------------------------------------------------------------------|
B|---------------------------------------------------------------------------|
G|-18-22-20--17--17--15~-----------------------------------------------------|
D|---------------------------------------------------------------------------|
A|---------------------------------------------------------------------------|
E|---------------------------------------------------------------------------|

************************************

| /   slide up
| \   slide down
| h   hammer-on
| p   pull-off
| ~   vibrato
| +   harmonic
| x   Mute note
| b   Bend
| pb  Pre-bend
| br  Bend release
| pbr Pre-bend release
| brb Bend release bend

************************************
Добавлено: 09.08.2015
Другие материалы по этой песне:
  • Аккорды и текст

Страница создана 09.08.2015
http://primanota.ru/shoji-meguro/memories-of-city-persona-3-chords.htm
Привет, Гость.
Предлагаем пройти революционный курс по гитаре.
Подарок от PrimaNota.Ru, забирай!