PrimaNota.ru - самый крупный в мире бесплатный архив песенных текстов, аккордов, табулатур и нот


Sho Nuff - Funkasize You - бас-таба, видео

Регистрация Запомнить меня
Войти через:  Facebook Google Twitter Vk Yandex Mail.ru

Sho Nuff - Funkasize You - бас-таба, видео

Печатать
Просмотров: 95
-------------------------------------------------------------------------------
                             SONG NAME - Band Name
-------------------------------------------------------------------------------
Tabbed by: Andres Johnstone
E-mail: andrefstone@hotmail.co.uk

Tuning: Standard

Intro
G|--------------------------------|
D|-------x-3~------x-3~-----------|
A|--------------------------------|
E|----5~--------5~------3----5~---|

  Main Riff
G|--------------------------------------------------------------------------------|
D|----7-5---5---------------------------------------------------------------------|
A|--7-----7---7-5--------------------------3------3-------------------------------|
E|----------------8--3--5----x-2-3--2-3--5---5-------5--5-3-5---x-2-3--2-3--x-3/5-|

  Chorus
G|----7----9----10---------------------------|
D|---------------------------------------7p5-|
A|--5----7----8----10--x--12--0--0--0--0-----|
E|-------------------------------------------|
                                         P

G|----7----9----10---------------------------|
D|---------------------------------------7h5-|
A|--5----7----8----10--x--12--0--0--0--0-----|
E|-------------------------------------------|
                                         p

G|----7----9----10--------------------------------------|
D|------------------------------------------------------|
A|--5----7----8----10--8-8-8-8-8-8-8-8-8-8-8-8-8-8-8-8--|
E|------------------------------------------------------|
                                         
  Main Riff
G|--------------------------------------------------------------------------------|
D|----7-5---5---------------------------------------------------------------------|
A|--7-----7---7-5--------------------------3------3-------------------------------|
E|----------------8--3--5----x-2-3--2-3--5---5-------5--5-3-5---x-2-3--2-3--x-3/5-|

  Chorus
G|----7----9----10---------------------------|
D|---------------------------------------7p5-|
A|--5----7----8----10--x--12--0--0--0--0-----|
E|-------------------------------------------|
                                         P

G|----7----9----10---------------------------|
D|---------------------------------------7h5-|
A|--5----7----8----10--x--12--0--0--0--0-----|
E|-------------------------------------------|
                                         p

G|----7----9----10--------------------------------------|
D|------------------------------------------------------|
A|--5----7----8----10--8-8-8-8-8-8-8-8-8-8-8-8-8-8-8-8--|
E|------------------------------------------------------|

  Funk Interlude
G|--------------------------|----------------|
D|--------------------------|----------------|
A|----------------5-5--3-3--|----------------|
E|--5-5----3-3--------------|--10\\3--10\\3--|

G|--------------------------|----------------|
D|--------------------------|----------------|
A|----------------5-5--3-3--|--5/6--5-3-5-3--|
E|--5-5----3-3--------------|----------------|

G|--------------------------|----------------|
D|--------------------------|----4-------5---|
A|----------------5-5--3-3--|----------------|
E|--5-5----3-3--------------|--2---2---3--3--|

G|--------------------------|----------------|
D|--------------------------|----------------|
A|----------------5-5--3-3--|--5/6--5-3-5-3--|
E|--5-5----3-3--------------|----------------|

  Chorus
G|----7----9----10---------------------------|
D|---------------------------------------7p5-|
A|--5----7----8----10--x--12--0--0--0--0-----|
E|-------------------------------------------|
                                         P

G|----7----9----10---------------------------|
D|---------------------------------------7h5-|
A|--5----7----8----10--x--12--0--0--0--0-----|
E|-------------------------------------------|
                                         p

G|----7----9----10--------------------------------------|
D|------------------------------------------------------|
A|--5----7----8----10--8-8-8-8-8-8-8-8-8-8-8-8-8-8-8-8--|
E|------------------------------------------------------|

  2nd Funk Interlude
G|--------------------------|----------------|
D|--------------------------|----------------|
A|----------------5-5--3-3--|----------------|
E|--5-5----3-3--------------|--10\\3--10\\3--|

G|--------------------------|----------------|
D|--------------------------|----------------|
A|----------------5-5--3-3--|----------------|
E|--5-5----3-3--------------|--20\\----------|

G|--------------------------|--7p5--|
D|--------------------------|-------|
A|----------------5-5--3-3--|-------|
E|--5-5----3-3--------------|-------|
                               P

G|--------------------------|----------------|
D|--------------------------|------4-----5---|
A|----------------5-5--3-3--|----------------|
E|--5-5----3-3--------------|--x-2---2-3---3-|

G|--------------------------|----------------|
D|--------------------------|----------------|
A|----------------5-5--3-3--|----------------|
E|--5-5----3-3--------------|--10\\3--10\\3--|

G|--------------------------|----7--5--|
D|--------------------------|-7--------|
A|----------------5-5--3-3--|----------|
E|--5-5----3-3--------------|----------|
                              P  P  P 

G|--------------------------|
D|--------------------------| Funk Out till the end ;) 
A|----------------5-5--3-3--|
E|--5-5----3-3--------------|



| /  slide up
| \  slide down
| h  hammer-on
| p  pull-off
| ~  vibrato
| +  harmonic
| x  Mute note
===============================================================================
Добавлено: 12.07.2015
Другие материалы по этой песне:
  • Аккорды и текст

Страница создана 12.07.2015
http://primanota.ru/sho-nuff/funkasize-you-chords.htm
Привет, Гость.
Предлагаем пройти революционный курс по гитаре.
Подарок от PrimaNota.Ru, забирай!