PrimaNota.ru - самый крупный в мире бесплатный архив песенных текстов, аккордов, табулатур и нот


Shlomo Artzi - Melech Haolam - таба, видео

Регистрация Запомнить меня
Войти через:  Facebook Google Twitter Vk Yandex Mail.ru

Shlomo Artzi - Melech Haolam - таба, видео

Печатать
Просмотров: 83
Shlomo Artzi  -  Melech HaOlam  (king of the world)


Accordion Intro:

e|------7--------------------------7-------|
B|----8----7---8--------7---8--7-8---7-----|
G|--9--------9---9--------9------------9---|
D|-----------------9-8---------------------|   X 2
A|-----------------------------------------|
E|-----------------------------------------|


Chorus - VOICE MELODY:


e|--11--8-6-8-6-10----6-5-6-5-6-5-6---8-10-8-6-3--|---5-6-5--|
B|------------------------------------------------|----------|
G|------------------------------------------------|----------|
D|------------------------------------------------|----------|
A|------------------------------------------------|----------|
E|------------------------------------------------|----------|


e|--10-8-10-8-11-----8-6-8-6-10----6-5-6-5-6-5-6---8-10-8-6-3--|
B|-------------------------------------------------------------|
G|-------------------------------------------------------------|
D|-------------------------------------------------------------|
A|-------------------------------------------------------------|
E|-------------------------------------------------------------|

e|--6-8-10-8-6-3-----5-5-5-3-6--|
B|------------------------------|
G|------------------------------|
D|------------------------------|
A|------------------------------|
E|------------------------------|
Добавлено: 03.01.2016
Другие материалы по этой песне:
  • Аккорды и текст

Страница создана 03.01.2016
http://primanota.ru/shlomo-artzi/melech-haolam-chords.htm
Привет, Гость.
Предлагаем пройти революционный курс по гитаре.
Подарок от PrimaNota.Ru, забирай!