PrimaNota.ru - самый крупный в мире бесплатный архив песенных текстов, аккордов, табулатур и нот


Shlomi Shabat - Aba - таба, видео

Регистрация Запомнить меня
Войти через:  Facebook Google Twitter Vk Yandex Mail.ru

Shlomi Shabat - Aba - таба, видео

Печатать
Просмотров: 84
Shlomi Shabat  -   Aba


Voice melody for Guitar


e|----------4-2-2---1------|------1-1--|-------------|------1-1--|
B|--6-6---6-----------4-4--|--4-2------|--9-7-7-6-4--|--4-2------|
G|-------------------------|-----------|-------------|-----------|
D|-------------------------|-----------|-------------|-----------|
A|-------------------------|-----------|-------------|-----------|
E|-------------------------|-----------|-------------|-----------|


e|-----------6-4--|--1-2-4--4-8-6--|--1-2-4-6--6-6--6-6---6-6-6-8--|
B|--4-6-7--7------|----------------|-------------------------------|
G|----------------|----------------|-------------------------------|
D|----------------|----------------|-------------------------------|
A|----------------|----------------|-------------------------------|
E|----------------|----------------|-------------------------------|



e|----------4-2-2---1----|------1-1--|-------------|------1-1--|
B|--6-6---6-----------4--|--4-2------|--9-7-7-6-4--|--4-2------|
G|-----------------------|-----------|-------------|-----------|
D|-----------------------|-----------|-------------|-----------|
A|-----------------------|-----------|-------------|-----------|
E|-----------------------|-----------|-------------|-----------|



e|-------------6-4--|--1-2-4--4-4-8-6--|--1-2-4-6--6-6--6-6---6-6-6-8--|
B|--4-6-7--7-7------|------------------|-------------------------------|
G|------------------|------------------|-------------------------------|
D|------------------|------------------|-------------------------------|
A|------------------|------------------|-------------------------------|
E|------------------|------------------|-------------------------------|
                


Chorus:

e|--9-9--|-----9-13-11---9-9-8-8----------8-8-9--|
B|-------|--11-------------------10----10--------|
G|-------|---------------------------------------|
D|-------|---------------------------------------|
A|-------|---------------------------------------|
E|-------|---------------------------------------|


e|-----9-13-13--11-11---9-8-----8-8-8-9--|
B|--11----------------------10-----------|
G|---------------------------------------|
D|---------------------------------------|
A|---------------------------------------|
E|---------------------------------------|


e|-----9-13-13--11-11---9-11--|--9-11-13-9-8-9--|
B|--11------------------------|-----------------|
G|----------------------------|-----------------|
D|----------------------------|-----------------|
A|----------------------------|-----------------|
E|----------------------------|-----------------|



e|--9-11-13-13--11-11---9-8--|--6-8-8-8-9---|
B|---------------------------|--------------|
G|---------------------------|--------------|
D|---------------------------|--------------|
A|---------------------------|--------------|
E|---------------------------|--------------|

Добавлено: 19.12.2015
Другие материалы по этой песне:
  • Аккорды и текст

Страница создана 19.12.2015
http://primanota.ru/shlomi-shabat/aba-chords.htm
Привет, Гость.
Предлагаем пройти революционный курс по гитаре.
Подарок от PrimaNota.Ru, забирай!