PrimaNota.ru - самый крупный в мире бесплатный архив песенных текстов, аккордов, табулатур и нот


Shirt - Phantom Redux - бас-таба, видео

Регистрация Запомнить меня
Войти через:  Facebook Google Twitter Vk Yandex Mail.ru

Shirt - Phantom Redux - бас-таба, видео

Печатать
Просмотров: 15
--------------------------------------------------------------------------
                          Phantom (Redux) - Shirt
--------------------------------------------------------------------------
Tabbed by: Dean P.
E-mail: dean.pastrello@gmail.com

Tuning: Standard

Song: www.youtube.com/watch?v=8pgdbQWVxJs

G|-----------------------------------|--------------4--------------------|
D|------------------------------4----|------4---4-------6-------4--------|
A|--------------3-------6------------|-----------------------------------|
E|--4---4---4------------------------|-----------------------------------|
    1 e + a 2 e + a 3 e + a 4 e + a     1 e + a 2 e + a 3 e + a 4 e + a

G|--4-------6---4--------------------|------4-----------------------4----|
D|------6-----------6---4---6---6----|----------4---6-------4---6--------|
A|-----------------------------------|------------------6----------------|
E|-----------------------------------|-----------------------------------|
    1 e + a 2 e + a 3 e + a 4 e + a     1 e + a 2 e + a 3 e + a 4 e + a


At 1:34 the bass changes

G|-----------------------------------|
D|------------------------------4----|
A|--------------3-------6------------|
E|--4---4----------------------------|
    1 e + a 2 e + a 3 e + a 4 e + a     


Then the last two bars before the bass cuts off (1:57):

G|-----------------------------------|----------4-------6---4------------|
D|------------------------------4----|------6-------6-----------6---4----|
A|----------------------6------------|-----------------------------------|
E|--4---4---4---4--------------------|-----------------------------------|
    1 e + a 2 e + a 3 e + a 4 e + a     1 e + a 2 e + a 3 e + a 4 e + a
Добавлено: 25.06.2016
Другие материалы по этой песне:
  • Аккорды и текст

Страница создана 25.06.2016
http://primanota.ru/shirt/phantom-redux-chords.htm
Привет, Гость.
Предлагаем пройти революционный курс по гитаре.
Подарок от PrimaNota.Ru, забирай!