PrimaNota.ru - самый крупный в мире бесплатный архив песенных текстов, аккордов, табулатур и нот


Shiro Sagisu - Spiritual Bonds - таба, видео

Регистрация Запомнить меня
Войти через:  Facebook Google Twitter Vk Yandex Mail.ru

Shiro Sagisu - Spiritual Bonds - таба, видео

Печатать
Просмотров: 120
Уроки эстрадного вокала в Санкт-Петербурге
-------------------------------------------------------------------------------
                             SPIRITUAL BONDS - Shiro Sagisu
                             
                             From the OST of the movie Bleach: The DiamondDust Rebellion
                             
                             Guitar intro only 
-------------------------------------------------------------------------------
Tabbed by: Seth Lasam
E-mail: absolyst@gmail.com

Tuning: Standard (e B G D A E)

This tab does not portray any chords as arpeggiated even if they were in the original recording. I believe such 
embellishments should be played at the performer's discretion.

The actual tempo for the song is inconsistent, as it is performed rubato, so I'd give the song a listen 
before trying to learn it. The spaces between the notes in this tab represent my rough estimate of the time 
between them.

I am open to any and all constructive criticism. Enjoy and good luck.

e|-------|---------|--------------|-----------|------------|-5------5-|-7--5---3-2--|
B|-----3-|-5-----5-|-6--5-------5-|-----------|------------|----5-----|-7-----------|
G|---5---|----5----|-5--------7---|-5-----4-5-|-7--5--4--5-|----5-----|-8-----------|
D|-5-----|----5----|-7------6-----|-7---7-----|-5----------|-4--------|-7-----------|
A|-------|---------|--------------|-7---------|------------|----------|-------------|
E|-------|---------|--------------|-----------|------------|----------|-------------|


e|-3-----3-----3---|-3-----1-----0----------|-----------------|-5---------------------|
B|-----3-----2-----|-1-----1-----0--------3-|-5-----------3-5-|----4---------3--3h4---|
G|---4-----3-----3-|-2--2-----2--1-----5----|-------2-4-5-----|-------5------4--------|
D|-----------------|----------------5-------|-----5-----------|---------4-3-----------|
A|-----------------|------------------------|-----------------|-----------------------|
E|-----------------|------------------------|-----------------|-----------------------|


e|-----------------------0-|---------------|-5-----------------5----|------------------------|-----------|
B|-2s3--1-------0--1--3----|-2h3---1--0--1-|----------5--3----------|------------------------|-8---------|
G|-2s4--2-----2------------|-0-------------|-------5--------5-----5-|-4-----5-----7-----4----|-7-----7---|
D|----------2--------------|-2-------------|----3-------------------|-7-----7-----7-----7----|----9------|
A|-------------------------|---------------|------------------------|----6-----6-----6-----6-|-----------|
E|-------------------------|---------------|------------------------|------------------------|-----------|


e|---------------|------------------------|------------------------|---------------------|----------0--|
B|-8--7-----8----|-6-----5-----4-----5----|-6--------8--5--6-------|-5-----3-------------|-0-----------|
G|---------------|-6-----6-----6-----6----|----5--------------5----|-4-----4--5-----4----|------1------|
D|-------9-----9-|----5-----5-----5-----5-|-------0--------------0-|-6--6-----6----------|------3------|
A|---------------|------------------------|------------------------|----------5----------|------3------|
E|---------------|------------------------|------------------------|---------------------|-------------|


e|------------|-0--------0-|-1--0-----0-|------------|------------|-5-----------5-|-7--5---|
B|-1-----1--3-|-1--1--3----|-3-----3----|-1--------1-|-3--1--0--1-|-5---------5---|-7------|
G|----0-------|-0----------|-2-----3----|-------0----|-0--0--0--0-|----2----5-----|-8------|
D|-2----------|------------|-------6----|----2-------|-2----------|-------4-------|-7------|
A|------------|-3----------|-2----------|-0----------|------------|---------------|--------|
E|------------|------------|-------0----|------------|-3----------|-2-------------|--------|


e|-------|---------------------|-------------|-0------------0-|-5----|
B|---8-7-|-8--------8--------8-|-8-----1--3--|-1--3-1-0-1-3---|----4-|
G|---8---|-7-----7--------6----|----0--1-----|-0--------------|----2-|
D|-------|----9--------8-------|-------3-----|----------------|------|
A|-------|-7--------6----------|-5-----------|-3--------------|-2----|
E|-7-----|---------------------|-------3-----|-0--------------|------|


e|---------|----------------|------------------------|-5--------5-------------|--------|
B|---3-3h4-|-2h3-1------0h1-|-3-----1-----0-----1----|-------5-----3----------|-----0--|
G|---1-----|----------------|-0-----0-----0-----0----|----5-----------5--4--2-|-----2--|
D|---------|----------2-----|----2-----2-----2-----2-|-3----------------------|-----3--|
A|---------|-0------0-------|------------------------|------------------------|--------|
E|-0-------|----------------|-3----------------------|------------------------|-1------|


e|-------|-3-----------3--2--3-------|--------------|-------------|-0------------|
B|-1-3-0-|----------3-----------3----|---6-5----4-5-|-6-----------|-0--3--1--0---|
G|-------|-------4-----------------4-|---6------6---|-----5-------|-1------------|
D|-------|----2----------------------|--------------|-----7---6-7-|-3------------|
A|-------|---------------------------|-0------6-----|---5---------|--------------|
E|-------|---------------------------|--------------|-------------|-3------------|


e|---------------|-------8--|-7-----5-----|-4--3-----7----|
B|-0----------0--|-1--------|-------------|-4-------------|
G|-1-------1-----|----5-----|-7--7-----7--|-2-----4-------|
D|-----3---------|-2--------|-------------|---------------|
A|-3-------------|-3--------|-8-----------|-2-------------|
E|---------------|----------|-------------|---------------|


e|-5-----3-|-2--1--------5--|-3-----1--|---------------3-|
B|-3-----3-|-2--------------|-1-----1--|-5-----4---------|
G|-4--4----|----------2-----|-2--2-----|-4----------0----|
D|-2-------|----------------|-0--------|-3--3------------|
A|---------|-0--------------|----------|-----------------|
E|---------|----------------|----------|-3---------------|


e|-1-----0----|----------8-|-7-----5-----|-8---7--|-5-----3-----|
B|-3----------|-------8----|-6-----6-----|-9---8--|-3-----3-----|
G|-0--0--5----|-7--5--7----|-7-----------|-8------|-4--4-----4--|
D|----------3-|-4-----5----|----7-----7--|-7------|-2-----------|
A|-3-----5----|-6-----7----|-8-----------|--------|-------------|
E|------------|------------|-------------|-7------|-------------|


e|-6---5-|-3-----1---|-0-----1--0-|-------------|---------8-|
B|-7---6-|-5---------|-0--3-------|-3--------3--|-1---------|
G|-6---6-|----5------|-1----------|-1-----1-----|------5----|
D|-------|-0---------|-3----------|-3--3--------|-2---------|
A|-0-----|-----------|------------|-3-----------|-3---------|
E|-------|-----------|-3----------|-------------|-----------|


e|--7---5-|----------7-|-5---3--|----------5--|--3---1-----|-------|
B|--8-----|-9--8-------|-7------|-7--6--------|--5-----2-1-|---5p4-|
G|-10-----|-8----------|-9------|-6-----------|--7---------|-4-----|
D|--------|-------9----|--------|-------7-----|------------|-------|
A|--------|------------|--------|-------------|------------|-------|
E|--------|------------|--------|-------------|------------|-------|


e|---3---|-1-----0-----|----------8--|-7-----5-----|--8----7---|
B|-----3-|-3-----------|-------8-----|-6-----6-----|--9----8---|
G|-0-----|-0--0--5-----|-7--5--7-----|-7-----------|--8--------|
D|-------|----------3--|-4-----5-----|----7-----7--|--7--------|
A|-------|-3-----5-----|-6-----7-----|-8-----------|-------8---|
E|-------|-------------|-------------|-------------|--7--------|


e|-5-----3-----|-6----5----|-3--1------|-0-----1--0----|-----------|---1-0-------|--------|------|
B|-3-----3-----|-7----6----|-5---------|-0--3--1--0----|-3---------|-3-----3-----|-----3--|-1----|
G|-4--4-----4--|-6----6----|-5-----1-2-|-1-------------|---------1-|---------0-1-|-0------|-0----|
D|-2-----------|-----------|-0---------|-3-------------|-------3---|-------------|---3----|-2----|
A|-------------|-0----6----|-----------|---------------|-----3-----|-------------|--------|-3----|
E|-------------|-----------|-----------|-3-------------|-----------|-------------|--------|------| 
Добавлено: 26.09.2015
Другие материалы по этой песне:

Страница создана 26.09.2015
http://primanota.ru/shiro-sagisu/spiritual-bonds-chords.htm
Привет, Гость.
Предлагаем пройти революционный курс по гитаре.
Подарок от PrimaNota.Ru, забирай!