PrimaNota.ru - самый крупный в мире бесплатный архив песенных текстов, аккордов, табулатур и нот


Shining - Yttligare Ett Steg Narmare Total Javla Utfrysning - таба, видео

Регистрация Запомнить меня
Войти через:  Facebook Google Twitter Vk Yandex Mail.ru

Shining - Yttligare Ett Steg Narmare Total Javla Utfrysning - таба, видео

Печатать
Просмотров: 40
Tabbed by: POSHKRUEGER

Tuning: Drop C

Hugely underrated song by Shining

0.20 - 1.15
|---------------------------------------------------------------------------|
|---------------------------------------------------------------------------|
|---------------------------------------------------------------------------|
|-6-6-6-6-6-6-6-6-6-6-6-6-6-6-6-6-6-6-6-6-6-6-6-6-6-6-6-6-6-6-6-6-----------|
|-6-6-6-6-6-6-6-6-6-6-6-6-6-6-6-6-6-6-6-6-6-6-6-6-6-6-6-6-6-6-6-6-----------|
|-6-6-6-6-6-6-6-6-6-6-6-6-6-6-6-6-6-6-6-6-6-6-6-6-6-6-6-6-6-6-6-6-----------|

|---------------------------------------------------------------------------|
|---------------------------------------------------------------------------|
|---------------------------------------------------------------------------|
|-7-7-7-7-7-7-7-7-7-7-7-7-7-7-7-7-7-7-7-7-7-7-7-7-7-7-7-7-7-7-7-7-----------|
|-7-7-7-7-7-7-7-7-7-7-7-7-7-7-7-7-7-7-7-7-7-7-7-7-7-7-7-7-7-7-7-7-----------|
|-7-7-7-7-7-7-7-7-7-7-7-7-7-7-7-7-7-7-7-7-7-7-7-7-7-7-7-7-7-7-7-7-----------|

1.16 - 2.49
|---------------------------------------------------------------------------|
|--------11---11------------11---11-----------------------------------------|
|------8----9----8--------8----9----8---------------------------------------|
|----9-------------7----9-------------7-------------------------------------|
|-11-----------------11-----------------------------------------------------|
|---------------------------------------------------------------------------| play twice

|---------------------------------------------------------------------------|
|--------11---11------------11---11-----------------------------------------|
|------8----9----8--------8----9----8---------------------------------------|
|----9-------------7----9-------------7-------------------------------------|
|-10-----------------10-----------------------------------------------------|
|---------------------------------------------------------------------------| play twice
              Repeat these two sections

2.50 - 3.20
|---------------------------------------------------------------------------|
|---------------------------------------------------------------------------|
|-----------------------6---------------------------------------------------|
|-6--6-6/8-8-8--8/9-9-9---8--8-8\5-5-5--5\2-2-1-2---------------------------|
|---------------------------------------------------------------------------|
|---------------------------------------------------------------------------|

|-------------------------------9h11h12p11-11-9-----------------------------|
|-9--9/11^-11-11-11/12^--9h11h12----------------12^-11-12-11-9--------------|
|---------------------------------------------------------------------------|
|---------------------------------------------------------------------------|
|---------------------------------------------------------------------------|
|---------------------------------------------------------------------------|

3.21 - 3.54

Guitar 1
|-----------------------15-14-----------------------14-----------------------------------------------|
|-------16-11-12^-11-12-------12^--11-9-12--11-11-9----13\11-13-11-8-11-9-11-11^--11---4-7-4---------|
|-13/16------------------------------------------------------------------------------6-------6-------|
|----------------------------------------------------------------------------------------------4-6---|
|----------------------------------------------------------------------------------------------------|
|----------------------------------------------------------------------------------------------------|

Guitar 2
|-------------------------------------------------------------------------------|
|-------------------------------------------------------------------------------|
|-----------------------------------------------------------------------9-------|
|-6-6-6-6-6-6-6-6-6-6-6-6-6-6-6-6-6-2-2-2-2-2-2-2-2-2-2-2-2-2-2-2-2-----9-------|
|-6-6-6-6-6-6-6-6-6-6-6-6-6-6-6-6-6-2-2-2-2-2-2-2-2-2-2-2-2-2-2-2-2-----7--x16--|
|-6-6-6-6-6-6-6-6-6-6-6-6-6-6-6-6-6-2-2-2-2-2-2-2-2-2-2-2-2-2-2-2-2-x4----------|

Repeat acoustic part from 3.55 - 5.00

5.10 - 6.22
|---------------------------------------------------------------------------|
|---------------------------------------------------------------------------|
|---------------------------------------------------------------------------|
|-8-8-8-8-8-8-8-8-4-4-4-4-4-4-4-4-4-4-4-4-4-4-4-4-8-8-8-8-8-8-8-8-----------|
|-8-8-8-8-8-8-8-8-4-4-4-4-4-4-4-4-4-4-4-4-4-4-4-4-8-8-8-8-8-8-8-8-----------|
|-8-8-8-8-8-8-8-8-4-4-4-4-4-4-4-4-4-4-4-4-4-4-4-4-8-8-8-8-8-8-8-8-----------| repeat until the end





************************************

| /   slide up
| \   slide down
| h   hammer-on
| p   pull-off
| ~   vibrato
| +   harmonic
| x   Mute note
| b   Bend
| pb  Pre-bend
| br  Bend release
| pbr Pre-bend release
| brb Bend release bend

************************************
Добавлено: 28.12.2015
Другие материалы по этой песне:

Страница создана 23.03.2012
http://primanota.ru/shining/yttligare-ett-steg-narmare-total-javla-utfrysning-chords.htm
Привет, Гость.
Предлагаем пройти революционный курс по гитаре.
Подарок от PrimaNota.Ru, забирай!