PrimaNota.ru - самый крупный в мире бесплатный архив песенных текстов, аккордов, табулатур и нот


Shinichi Osawa - Our Song - таба, видео

Регистрация Запомнить меня
Войти через:  Facebook Google Twitter Vk Yandex Mail.ru

Shinichi Osawa - Our Song - таба, видео

Печатать
Просмотров: 93
Уроки эстрадного вокала в Санкт-Петербурге
Electronic tune from the God Shinichi Osawa from Japan. Its not hard but fairly technical playing.

Key
[x?] = how many times played 
///// = slide up
\\\\\ = Slide down
(?~) = optional notes 

Main Riff/ Intro

e|--------------------------------------------------------------------------|
B|--------(7~)--------------------------------------------------------------|
G|---------6~---------------------------------------------------------------|
D|---9--8~-----8~-----------------------------------------------------------|
A|--------------------------------------------------------------------------|
E|--------------------------------------------------------------------------|

Lead slide (Delay X3)
e|---(4)/////9---------------9\\\(6)----------------------------------------|
B|--------------------------------------------------------------------------|
G|--------------------------------------------------------------------------|
D|--------------------------------------------------------------------------|
A|--------------------------------------------------------------------------|
E|--------------------------------------------------------------------------|

Chorus "Hey! let it shine on me yeah!"

Lead

e|---7-6--------------------------------------------------------------------|
B|--------6-----------------------------------------------------------------|
G|----------8-6-4-----------------------------------------------------------|
D|-----------------9-8------------------------------------------------------|
A|--------------------------------------------------------------------------|
E|--------------------------------------------------------------------------|

Chorus End lead

e|----11---------9---------|
B|--9----------------------|
G|--------11--8------------|
D|-------------------------|
A|-------------------------|
E|-------------------------|
Rhythm 
       E           F#        G#        B      
e|-----0-----------2---------4----------7-----------------------------------|
B|-----0-----------2---------4----------7-----------------------------------|
G|-----1-----------3---------5----------8------[x4]-------------------------|
D|-----2-----------4---------6---[x4]---9-----------------------------------|
A|-----2----[x4]---4---[x4]--6----------9-----------------------------------|
E|-----0-----------2---------4----------7-----------------------------------|
  
Chorus End Rhythm 

     G#  Eb  F#  E  B
e|---4---6---2---0--7------------|
B|---4---8---2---0--7------------|
G|---5---8---3---1--8------------|
D|---6---8---4---2--9------------|
A|---6---6---4---2--9------------|
E|---4-------2---0--7------------|


Break/Coda (crazy effects like phaser needed with low attack)

e|--------------------------------------------------------------------------|
B|-----------4-[x4]--4--------4/7-7-7-7-------------------------------------|
G|-----------6-------4--[x4]--4-4-4-4-4-------------------------------------|
D|--------------------------------------------------------------------------|
A|--------------------------------------------------------------------------|
E|--------------------------------------------------------------------------|

Shinichi Osawa's website: http://www.shinichi-osawa.com/index.html
Check out the song to get the rhythm. Ciao 
Добавлено: 25.02.2012
Вам также может быть интересно:
Другие материалы по этой песне:
  • Аккорды и текст

Страница создана 25.02.2012
http://primanota.ru/shinichi-osawa/our-song-chords.htm
Привет, Гость.
Предлагаем пройти революционный курс по гитаре.
Подарок от PrimaNota.Ru, забирай!