PrimaNota.ru - самый крупный в мире бесплатный архив песенных текстов, аккордов, табулатур и нот


Shinedown - Sitting On The Dock Of The Bay - таба, видео

Регистрация Запомнить меня
Войти через:  Facebook Google Twitter Vk Yandex Mail.ru

Shinedown - Sitting On The Dock Of The Bay - таба, видео

Печатать
Просмотров: 115
-------------------------------------------------------------------------------
                             SONG NAME - Band Name
-------------------------------------------------------------------------------
Tabbed by: cass romeo
E-mail: cass.romeo@gmail.com

Tuning: Standard

e|---3--3-------------------------------------------------------------|
B|---3--3--------------------------1-----------------------2----------|
G|---0--0----------2-----2-----2---0-----------------------x----------|
D|---0--0----------1---------------2-------5---5h7--5------2--x2------|
A|---2--2----0--1--2--2------2-----3--3/7----7---------7---0----------|
E|---3--3--3----------------------------------------------------------|

e|---3--3----------------------------------------------------------------------|
B|---3--3--------------------------1--1-----------2--2-------------------------|
G|---0--0----------2-----2-----2---0--0-----------x--x-------------------------|
D|---0--0----------1---------------2--2-----------2--2----Then Alternate-------|
A|---2--2----0--1--2--2------2-----3--3--3--2--1--0--0-------------------------|
E|---3--3--3-------------------------------------------------------------------|
        Chorus
e|-------3-3-----------------3--0-----3---------------------------------------------|
B|-------3-3-0-0-------------3--2-----3-0-------------------------------------------|
G|-------0-0-1-1-------------0--x-----0-1-------------------------------------------|
D|-------0-0-2-2-----then----0--2-----0-2------------and then there's one chord I cant figure out|
A|-------2-2-2-2-------------2--------2-2-------------------------------------------|
E|-------3-3-0-0-------------3--------3-0-------------------------------------------|
       Cool high part
e|--------3--2-2----------------------------------------------------------------|
B|--------3--1-2----------------------------------------------------------------|
G|--------0--2-0----------------------------------------------------------------|
D|--------0--0-2---------7---7h9-7------------And repeat-----------------------|
A|--------2----3------/9---9-------9~-7~----------------------------------------|
E|--------3---------------------------------------------------------------------|

The strumming pattern you can learn from the video, obviously the chord progression can be tabbed out further.
But I have faith in you guys!


************************************

| /   slide up
| \   slide down
| h   hammer-on
| p   pull-off
| ~   vibrato
| +   harmonic
| x   Mute note
| b   Bend
| pb  Pre-bend
| br  Bend release
| pbr Pre-bend release
| brb Bend release bend

************************************
Добавлено: 17.05.2015
Другие материалы по этой песне:
  • Аккорды и текст

Страница создана 17.05.2015
http://primanota.ru/shinedown/sitting-on-dock-of-bay-chords.htm
Привет, Гость.
Предлагаем пройти революционный курс по гитаре.
Подарок от PrimaNota.Ru, забирай!