PrimaNota.ru - самый крупный в мире бесплатный архив песенных текстов, аккордов, табулатур и нот


Shinedown - Outcast - таба, видео

Регистрация Запомнить меня
Войти через:  Facebook Google Twitter Vk Yandex Mail.ru

Shinedown - Outcast - таба, видео

Печатать
Просмотров: 169
INTRO/VERSE:
Lead:
E|---------------------------------------------|
B|-------6----------6----------6---------------|
G|-------5----------5----------5---------------|
D|--0--------3-3-3------8-8-8------------------|
A|--0--------3-3-3------8-8-8------------------|
D|--0--------3-3-3------8-8-8---------7-8-9-10-|

Rhythm:
E|---------------------------------------------|
B|---------------------------------------------|
G|---------------------------------------------|
D|--0--------3-3-3------8-8-8------------------|
A|--0--------3-3-3------8-8-8------------------|
D|--0--------3-3-3------8-8-8---------7-8-9-10-|


PRECHORUS:
Lead:
E|-------------------------------------------------------------------|
B|----------6--------------6--------------6--------------------------|
G|----------5--------------5--------------5--------------------------|
D|-------------------------------------------------------------------|
A|-------------------------------------------------------------------|
D|-------------------------------------------------------------------|
                                                                               
Rhythm:                                                                    
E|----------------------------------------------------------------------------------|
B|----------------------------------------------------------------------------------|
G|--7-7-7-7-7-7-7-7-10-10-10-10-10-10-10-10-3-3-3-3-3-3-3-3-3-3-3-3-3-3-3-3-2-3-4-5-|
D|--x-x-x-x-x-x-x-x-x--x--x--x--x--x--x--x--x-x-x-x-x-x-x-x-x-x-x-x-x-x-x-x-x-x-x-x-|
A|--5-5-5-5-5-5-5-5-8--8--8--8--8--8--8--8--1-1-1-1-1-1-1-1-1-1-1-1-1-1-1-1-0-1-2-3-|
D|----------------------------------------------------------------------------------|
The third prechorus has no lead guitar.


CHORUS:
Both Guitars:
E|----------------------------------------------------------------------------------|
B|----------------------------------------------------------------------------------|
G|--7-7-7-7-7-7-7-7-10-10-10-10-10-10-10-10-3-3-3-3-3-3-3-3-3-3-3-3-3-3-3-3-2-3-4-5-|
D|--7-7-7-7-7-7-7-7-10-10-10-10-10-10-10-10-3-3-3-3-3-3-3-3-3-3-3-3-3-3-3-3-2-3-4-5-|
A|--5-5-5-5-5-5-5-5-8--8--8--8--8--8--8--8--1-1-1-1-1-1-1-1-1-1-1-1-1-1-1-1-0-1-2-3-|
D|----------------------------------------------------------------------------------|


POST-CHORUS:
Lead:
E|-------------------------------------------------------------------|
B|----------6----------6--------6------------------------------------|
G|----------5----------5--------5------------------------------------|
D|-------------------------------------------------------------------|
A|-------------------------------------------------------------------|
D|-------------------------------------------------------------------|

Rhythm:
E|-------------------------------------------------------------------|
B|-------------------------------------------------------------------|
G|-------------------------------------------------------------------|
D|-----3h5--3--------------------------------------------------------|
A|---------------3-4-5----3-4-5---------5--5--5--5--5-5-5-5----------|
D|--0----------------------------------------------------------------|


BRIDGE/SOLO:
Lead:
E|---------------------------------------------------------------------|
B|---------------------------------------------------------------------|
G|-10/15-------------/17---/19-------/15--------------14---------------|
D|---------------------------------------------------------------------|
A|---------------------------------------------------------------------|
D|---------------------------------------------------------------------|
Tremolo pick each note. The slides are further down, and start behind 14
                                                                      
Rhythm:                                                                
E|---------------------------------------------------------------------|
B|---------------------------------------------------------------------|
G|---------------------------------------------------------------------|
D|----8-8-8-8-8-8-8-8-5-5-5-5-5-5-5-5-0-0-0-0-0-0-0-0-0-0-0-0-0-0-0-0--|
A|----8-8-8-8-8-8-8-8-5-5-5-5-5-5-5-5-0-0-0-0-0-0-0-0-0-0-0-0-0-0-0-0--|
D|----8-8-8-8-8-8-8-8-5-5-5-5-5-5-5-5-0-0-0-0-0-0-0-0-0-0-0-0-0-0-0-0--|

Lead:
E|---------------------------------------------------------------------|
B|---------------------------------------------------------------------|
G|-10/15-------------/17---/19-------/14--------------13------12-------|
D|---------------------------------------------------------------------|
A|---------------------------------------------------------------------|
D|---------------------------------------------------------------------|

Rhythm:                                                                
E|---------------------------------------------------------------------|
B|---------------------------------------------------------------------|
G|---------------------------------------------------------------------|
D|----8-8-8-8-8-8-8-8-5-5-5-5-5-5-5-5-0-0-0-0-0-0-0-0-0-0-0-0-0-0-0-0--|
A|----8-8-8-8-8-8-8-8-5-5-5-5-5-5-5-5-0-0-0-0-0-0-0-0-0-0-0-0-0-0-0-0--|
D|----8-8-8-8-8-8-8-8-5-5-5-5-5-5-5-5-0-0-0-0-0-0-0-0-0-0-0-0-0-0-0-0--|

There are harmonics played throughout the song, but I can't figure them out. 
If someone wants to point them out, feel free to. 
Добавлено: 13.03.2016
Другие материалы по этой песне:
  • Аккорды и текст

Страница создана 13.03.2016
http://primanota.ru/shinedown/outcast-chords.htm
Привет, Гость.
Предлагаем пройти революционный курс по гитаре.
Подарок от PrimaNota.Ru, забирай!