PrimaNota.ru - самый крупный в мире бесплатный архив песенных текстов, аккордов, табулатур и нот


Shinedown - Devour - текст песни, таба, бас-таба, видео

Регистрация Запомнить меня
Войти через:  Facebook Google Twitter Vk Yandex Mail.ru

Shinedown - Devour - текст песни, таба, бас-таба, видео

Печатать
Просмотров: 463
This song is Devour, its in Drop C. this tab is based of their acoustic set
on 92.3 k-rock. Link http://www.youtube.com/watch?v=X75YOn4_aLY. The rythem plays a d 
chord as the first chord in the verse Enjoy

tabber:Casey Ladd

Rythem
d ------------------------------------------------|
a ------------------------------------------------|
f 12-10-10-12--10-10-12--10-10-12--10-12-12-12----|x7
c ------------------------------------------------|
g ------------------------------------------------|
c ------------------------------------------------|

Lead
-0--0--0---0--0--------------------------|
-0--0--0---0--0--------------------------|
-9--5--7---9--5--7-7-7--9-9-9--11-11-11--|
-9--5--7---9--5--7-7-7--9-9-9--11-11-11--|
-7--3--5---7--3--5-5-5--7-7-7--9--9--9---|
-0--0--0---0--0--------------------------|
                pm.....................

Verse x2
-------------------------------------------|
-------------------------------------------|
------------------------------------7-7-7/-|
------------------------------------7-7-7/-|
------------------------------------5-5-5/-|x3
-2-0-0-0--2-0-0-0--2-0-0-0--2-0-0-0--------|

end with this both times
--------------------------------------------------|
--------------------------------------------------|
9-9-9--10-10-10--9-9-9--11-11-11--9-9-9--10-10-10-|
x-x-x--x--x--x---x-x-x--x--x--x---x-x-x--x--x--x--|
7-7-7--8--8--8---7-7-7--9--9--9---7-7-7--8--8--8--|
--------------------------------------------------|

Chorus x2
strum 8 times   strum 3 times
----------      -----------------|
----------      -----------------|
-10--5--9-      -7--9--3--5--7---|
-10--5--9- then -7--9--3--5--7---|
-8---3--7-      -5--7--3--5--7---|
----------      -----------------|

interlude rythem
-----------------------------------------------------------------------|
-----------------------------------------------------------------3-3-3-|
2-0-0-0--2-0-0-0--2-0-0-0--2-0-0-0-2br-2-0-0-0--2-0-0-0--2-0-0-0-2-2-2-|x2
-----------------------------------------------------------------0-0-0-|
-----------------------------------------------------------------------|
-----------------------------------------------------------------------|
                                                              pm.......
lead
---------------------------------------|
---------------------------------------|
9-7-7-7--9-7-7-7--9-7-7-7--9-7-7-7-9br-|x2
---------------------------------------|
---------------------------------------|
---------------------------------------|

verse x2
------------------------------------------|
------------------------------------------|
-----------------------------------7-7-7/-|
-----------------------------------7-7-7/-|
-----------------------------------5-5-5/-|x3
2-0-0-0--2-0-0-0--2-0-0-0--2-0-0-0--------|

end with this both times
--------------------------------------------------|
--------------------------------------------------|
9-9-9--10-10-10--9-9-9--11-11-11--9-9-9--10-10-10-|
x-x-x--x--x--x---x-x-x--x--x--x---x-x-x--x--x--x--|
7-7-7--8--8--8---7-7-7--9--9--9---7-7-7--8--8--8--|
--------------------------------------------------|

lead under this
-9b--10b--9b--11b--9b--10b---|
-----------------------------|
-----------------------------|
-----------------------------|
-----------------------------|
-----------------------------|

Chorus x2
hit 8 times     strum 3 times
----------      -----------------|
----------      -----------------|
-10--5--9-      -7--9--3--5--7---|
-10--5--9- then -7--9--3--5--7---|
-8---3--7-      -5--7--3--5--7---|
----------      -----------------|

strum each chord 3 times, strum them once on 4th time
----------------|
----------------|
-7--9--3--5--7--|
-7--9--3--5--7--|x4
-5--7--3--5--7--|
----------------|

Bridge x5        strum each chord 4 times, strum last chord once
--------------   --------------|
--------------   --------------|
--------------   -4--5--7------|
--------------x4 -4--5--7------|
--------------   -2--3--5------|
-3p0-0-0-0-0--   --------------|
  pm .....

chorus x4

outro
strum each chord 3 times, strum them once on 4th time
----------------|
----------------|
-7--9--3--5--7--|
-7--9--3--5--7--|x4
-5--7--3--5--7--|
----------------|

Key:
b-bend
r-r
v-vibrato
*-harmonic
.-mute
Добавлено: 31.07.2012
Другие материалы по этой песне:

Страница создана 23.02.2012
http://primanota.ru/shinedown/devour-chords.htm
Привет, Гость.
Предлагаем пройти революционный курс по гитаре.
Подарок от PrimaNota.Ru, забирай!