PrimaNota.ru - самый крупный в мире бесплатный архив песенных текстов, аккордов, табулатур и нот


Shinedown - Crow And The Butterfly - аккорды и текст, таба, бас-таба, видео

Регистрация Запомнить меня
Войти через:  Facebook Google Twitter Vk Yandex Mail.ru

Shinedown - Crow And The Butterfly - аккорды и текст, таба, бас-таба, видео

Печатать
Просмотров: 838
Уроки эстрадного вокала в Санкт-Петербурге
Авторы: Brent Smith, Dave Bassett

Crow And The Butterfly
Shinedown
Shinedown - Crow And The Butterfly
6/8  (standard tuned arrangement)

Verse 1
  (A)                  (F)
e|-----------------------------------------|
B|------2--------2---------1---------1-----|
G|----2---2----2---2-----2---2-----2---2---|
D|---------------------3---------3---------|
A|--0--------0-----------------------------|
E|-----------------------------------------|

  A                F                A              F  
    I painted your room at midnight    So I'd know yesterday was over
  A                F  
    I put all your books on the top shelf

   (C)                 (C7/Bb)
e|-------------------------------------------|
B|-------------------------------------------|
G|------0---------0---------0---------0------| 
D|----2---2-----2---2-----2---2-----2---2----|           
A|--3---------3---------1---------1----------|
E|-------------------------------------------|

  C         C7/Bb                      C      C7/Bb             C      C7/Bb 
    Even the one with the four-leaf clover    Man I'm gettin older

  A                 F
    I took all your pictures off the wall
  A                      F 
    And wrapped 'em in a newspaper blanket
  A              F                          C
    And i haven't slept in what seems like a century
  C7/Bb           Ab             Bb
    And now i can barely breathe

   (Ab)                     (Bb)
e|-------------------------------------------|
B|-------------------------------------------|
G|--5--5-5-5-5--5--5-5-5-5---7---7--7--7--7--|
D|--6--6-6-6-6--6--6-6-6-6---8---8--8--8--8--|
A|--6--6-6-6-6--6--6-6-6-6---8---8--8--8--8--|
E|--4--4-4-4-4--4--4-4-4-4---6---6--6--6--6--|



Chorus
             (Am)         (C)          (F)
e|------------0--0-0-0-0---0--0-0-0-0---1--1-1-1-1--1--|
B|------------1--1-1-1-1---1--1-1-1-1---1--1-1-1-1--1--|
G|------------2--2-2-2-2---0--0-0-0-0---2--2-2-2-2--2--|
D|------------2--2-2-2-2---2--2-2-2-2---3--3-3-3-3--3--|
A|-----5--3---0--0-0-0-0---3--3-3-3-3---3--3-3-3-3--3--|
E|--1--------------------------------------------------|


                 Am    C          F              Am     C           F   
    Just like a crow chasing the butterfly  Dandelions lost in the summer sky
         Am             C               F
    when you and I were getting high as outer space
            Dm      F         G                  Dm    F      G                  
    I never thought you would slip away  I guess I was just a little too late

Interlude     A    |F    |A    |F    ||

Verse 2
  A                  F           A           F
    Your words still serenade me    Your lullabies won't let me sleep
  A            F                     C
    I've never heard such a haunting melody
  C7/Bb             C    C7/Bb            Ab            Bb
    Oh it's killing me    You know I can barely breathe

Chorus
                 Am    C          F              Am     C           F   
    Just like a crow chasing the butterfly  Dandelions lost in the summer sky
         Am             C               F
    when you and I were getting high as outer space
            Dm      F         G                  Dm    F      G                  
    I never thought you would slip away  I guess I was just a little too late


Solo   Eb   |Bb   |F    |     ||x2   Eb   |Bb   |C    |     ||

Chorus
                 Am    C          F              Am     C           F   
    Just like a crow chasing the butterfly  Dandelions lost in the summer sky
         Am             C               F
    when you and I were getting high as outer space
            Dm      F         G                              
    I never thought you would slip away  
   
                 Am    C          F              Am     C           F   
         like a crow chasing the butterfly  Dandelions lost in the summer sky
       Am             C               F
  when you and I were getting high as outer space
           Dm      F         G                 Dm     F      G            Am                   
  I never thought you would slip away  I guess I was just a little too late
C  F  Am C  F                     Am  C  F  Am C F  (A)
     Ohhhhhh   Just a little too late

Outro      A    |F    |A    |F    |Asus2
Добавлено: 30.08.2013
Другие материалы по этой песне:

Страница создана 03.06.2013
http://primanota.ru/shinedown/crow-and-the-butterfly-chords.htm
Привет, Гость.
Предлагаем пройти революционный курс по гитаре.
Подарок от PrimaNota.Ru, забирай!