PrimaNota.ru - самый крупный в мире бесплатный архив песенных текстов, аккордов, табулатур и нот


Shinedown - Begin Again - текст песни, таба, видео

Регистрация Запомнить меня
Войти через:  Facebook Google Twitter Vk Yandex Mail.ru

Shinedown - Begin Again - текст песни, таба, видео

Печатать
Просмотров: 286
Tabbed by: SaltyOreo17@yahoo.com
Band: Shinedown
Song: Begin Again
Album: Us and Them
Tuning:
(Guitar 1): CGCFAD
(Guitar 2): CGCFAD

0:00-0:09
(Guitar 1)
D|--12-10-|
A|--10-12-|
F|--------|
C|--------|
G|--------|
C|--------|X5

0:03-0:11
(Guitar 2) 
D|----------------------------------------------------|
A|----------------------------------------------------|
F|----------------------------------------------------|
C|----------------------------------------3-3-3-5-1-1-|
G|----------------------------------------3-3-3-5-1-1-|
C|--0-0-8-0-8-8--0-0-8-0-8-8--0-0-8-0-8-8-3-3-3-5-1-1-|

0:13-0:19
(Guitar 2)
D|--------------------------------------------------------------|
A|--------------------------------------------------------------|
F|--------------------------------------------------------------|
C|--0-0-8-0-8-8--0-0-8-0-8-8--0-0-8-0-8-8--10-10-10-10--8-8-8-8-|
G|--0-0-8-0-8-8--0-0-8-0-8-8--0-0-8-0-8-8--10-10-10-10--8-8-8-8-|
C|--0-0-8-0-8-8--0-0-8-0-8-8--0-0-8-0-8-8--10-10-10-10--8-8-8-8-|

0:19-0:26
(Guitar 1) 
D|-----------------------------------------------------|
A|-----------------------------------------------------|
F|--7-------------9------------12----------15----------|
C|--x-------------x------------x-----------x-----------|
G|--5-------------7------------10----------13----------|
C|-----------------------------------------------------|
0:21-0:28
(Guitar 2)
D|-----------------------------------------------------|
A|-----------------------------------------------------|
F|-----------------------------------------------------|
C|--0-0-8-0-8-8--0-0-8-0-8-8--0-0-8-0-8-8--3-3-3-5-1-0-|
G|--0-0-8-0-8-8--0-0-8-0-8-8--0-0-8-0-8-8--3-3-3-5-1-0-|
C|--0-0-8-0-8-8--0-0-8-0-8-8--0-0-8-0-8-8--3-3-3-5-1-0-|

0:28-0:35
(Guitar 2)
D|-------------------------------------|
A|-------------------------------------|
F|-------------------------------------|
C|-------------------------------------|
G|-----7----7----8----8----6----6----5-|
C|--8-8--8-8--8-8--8-8--8-8--8-8--8-8--|

0:35-0:43
(Guitar 2)
D|------------------------------------------|
A|------------------------------------------|
F|------------------------------------------|
C|------------------------------------------|
G|-----7----7----7----7----8----8----5----5-|
C|--8-8--8-8--8-8--8-8--8-8--8-8--8-8--8-8--|

0:43-0:51
(Guitar 2)
D|------------------------------------------|
A|------------------------------------------|
F|------------------------------------------|
C|------------------------------------------|
G|-----7----7----9----9----8----8--8--5---5-|
C|--8-8--8-8--8-8--8-8--8-8--8-8--8----8-8--|

0:51-0:59
(Guitar 1)
D|------------------------------------------|
A|------------------------------------------|
F|-----9-------------------10--------7------|
C|-----9-------------------10--------7------|
G|-----7-------------------8---------5------|
C|------------------------------------------|

0:51-0:59
(Guitar 2)
D|------------------------------------------|
A|------------------------------------------|
F|------------------------------------------|
C|------------------------------------------|
G|-----7----7----7----7----8----8----5----5-|
C|--8-8--8-8--8-8--8-8--8-8--8-8--8-8--8-8--|

0:59-1:06
(Guitar 1)
D|------------------------------------------|
A|------------------------------------------|
F|----9--------------------10--------7------|
C|----9--------------------10--------7------|
G|----7--------------------8---------5------|
C|------------------------------------------|

0:59-1:06
(Guitar 2)
D|------------------------------------------|
A|------------------------------------------|
F|------------------------------------------|
C|------------------------------------------|
G|-----7----7----9----9----8----8--8--5---5-|
C|--8-8--8-8--8-8--8-8--8-8--8-8--8----8-8--|

1:06-1:18
(Guitar 2)
D|----------------------------------------------------------|
A|----------------------------------------------------------|
F|----------------------------------------------------------|
C|--10-10-10--8-8-8------------------------10-10-10--888888-|
G|--10-10-10--8-8-8-0--7h8p7-3-0-0-7h8p7-3-10-10-10--888888-|
C|--10-10-10--8-8-8-0----------0-0---------10-10-10--888888-|

1:13-1:14
(Guitar 1)
D|---------|
A|---------|
F|--10-9-5-|
C|---------|
G|---------|
C|---------|

1:18-1:25
(Guitar 2)
D|--------------------------------------------------------------|
A|--------------------------------------------------------------|
F|--------------------------------------------------------------|
C|--0-0-8-0-8-8--0-0-8-0-8-8--0-0-8-0-8-8--10-10-10-10--8-8-8-8-|
G|--0-0-8-0-8-8--0-0-8-0-8-8--0-0-8-0-8-8--10-10-10-10--8-8-8-8-|
C|--0-0-8-0-8-8--0-0-8-0-8-8--0-0-8-0-8-8--10-10-10-10--8-8-8-8-|

1:25-1:37
(Guitar 2)
D|-----------------------------------------------------|
A|-----------------------------------------------------|
F|-----------------------------------------------------|
C|--0-0-8-0-8-8--0-0-8-0-8-8--0-0-8-0-8-8--3-3-3-5-1-0-|
G|--0-0-8-0-8-8--0-0-8-0-8-8--0-0-8-0-8-8--3-3-3-5-1-0-|
C|--0-0-8-0-8-8--0-0-8-0-8-8--0-0-8-0-8-8--3-3-3-5-1-0-|


1:37-1:44
(Guitar 2)
D|------------------------------------------|
A|------------------------------------------|
F|------------------------------------------|
C|------------------------------------------|
G|-----7----7----7----7----8----8----5----5-|
C|--8-8--8-8--8-8--8-8--8-8--8-8--8-8--8-8--|

1:44-1:52
(Guitar 2)
D|------------------------------------------|
A|------------------------------------------|
F|------------------------------------------|
C|------------------------------------------|
G|-----7----7----9----9----8----8--8--5---5-|
C|--8-8--8-8--8-8--8-8--8-8--8-8--8----8-8--|

1:52-2:00
(Guitar 1)
D|------------------------------------------|
A|------------------------------------------|
F|-----9-------------------10--------7------|
C|-----9-------------------10--------7------|
G|-----7-------------------8---------5------|
C|------------------------------------------|

1:52-2:00
(Guitar 2)
D|------------------------------------------|
A|------------------------------------------|
F|------------------------------------------|
C|------------------------------------------|
G|-----7----7----7----7----8----8----5----5-|
C|--8-8--8-8--8-8--8-8--8-8--8-8--8-8--8-8--|

2:00-2:07
(Guitar 1)
D|------------------------------------------|
A|------------------------------------------|
F|----9--------------------10--------7------|
C|----9--------------------10--------7------|
G|----7--------------------8---------5------|
C|------------------------------------------|

2:00-2:07
(Guitar 2)
D|------------------------------------------|
A|------------------------------------------|
F|------------------------------------------|
C|------------------------------------------|
G|-----7----7----9----9----8----8--8--5---5-|
C|--8-8--8-8--8-8--8-8--8-8--8-8--8----8-8--|

2:07-2:19
(Guitar 2)
D|----------------------------------------------------------|
A|----------------------------------------------------------|
F|----------------------------------------------------------|
C|--10-10-10--8-8-8------------------------10-10-10--888888-|
G|--10-10-10--8-8-8-0--7h8p7-3-0-0-7h8p7-3-10-10-10--888888-|
C|--10-10-10--8-8-8-0----------0-0---------10-10-10--888888-|

2:14-2:15
(Guitar 1)
D|---------|
A|---------|
F|--10-9-5-|
C|---------|
G|---------|
C|---------|

2:19-2:26
(Guitar 2)
D|--------------------------------------------------------------|
A|--------------------------------------------------------------|
F|--------------------------------------------------------------|
C|--0-0-8-0-8-8--0-0-8-0-8-8--0-0-8-0-8-8--10-10-10-10--8-8-8-8-|
G|--0-0-8-0-8-8--0-0-8-0-8-8--0-0-8-0-8-8--10-10-10-10--8-8-8-8-|
C|--0-0-8-0-8-8--0-0-8-0-8-8--0-0-8-0-8-8--10-10-10-10--8-8-8-8-|

2:26-2:34
(Guitar 2)
D|-----------------------------------------------------|
A|-----------------------------------------------------|
F|-----------------------------------------------------|
C|--0-0-8-0-8-8--0-0-8-0-8-8--0-0-8-0-8-8--3-3-3-5-1-0-|
G|--0-0-8-0-8-8--0-0-8-0-8-8--0-0-8-0-8-8--3-3-3-5-1-0-|
C|--0-0-8-0-8-8--0-0-8-0-8-8--0-0-8-0-8-8--3-3-3-5-1-0-|

2:34-2:41
(Guitar 2)
D|-------------------------------------------------------------------|
A|-------------------------------------------------------------------|
F|-------------------------------------------------------------------|
C|-------------------------------------------------------------------|
G|-------------------------------------------------------------------|
C|--00000000-333333333-00000000-33333333-00000000-33333333-7-8-10-12-|

2:41-2:49
(Guitar 2)
D|-------------------------------------------------------------------|
A|-------------------------------------------------------------------|
F|-------------------------------------------------------------------|
C|-------------------------------------------------------------------|
G|-------------------------------------------------------------------|
C|--00000000-333333333-00000000-33333333-00000000-33333333-7-8-10-12-|

2:49-2:56
(Guitar 2)
D|-------------------------------------------------------------------|
A|-------------------------------------------------------------------|
F|-------------------------------------------------------------------|
C|-------------------------------------------------------------------|
G|-------------------------------------------------------------------|
C|--00000000-333333333-00000000-33333333-00000000-33333333-7-8-10-12-|

2:56-3:01
(Guitar 2)
D|-----------------------|
A|-----------------------|
F|-----------------------|
C|-----------------------|
G|-----------------------|
C|--7-8-10-12--7-8-10-12-|

3:01-3:09
(Guitar 2)
D|--------------------------------------------------------------|
A|--------------------------------------------------------------|
F|--------------------------------------------------------------|
C|--0-0-8-0-8-8--0-0-8-0-8-8--0-0-8-0-8-8--10-10-10-10--8-8-8-8-|
G|--0-0-8-0-8-8--0-0-8-0-8-8--0-0-8-0-8-8--10-10-10-10--8-8-8-8-|
C|--0-0-8-0-8-8--0-0-8-0-8-8--0-0-8-0-8-8--10-10-10-10--8-8-8-8-|

3:09-3:17
(Guitar 2)
D|-----------------------------------------------------|
A|-----------------------------------------------------|
F|-----------------------------------------------------|
C|--0-0-8-0-8-8--0-0-8-0-8-8--0-0-8-0-8-8--3-3-3-5-1-0-|
G|--0-0-8-0-8-8--0-0-8-0-8-8--0-0-8-0-8-8--3-3-3-5-1-0-|
C|--0-0-8-0-8-8--0-0-8-0-8-8--0-0-8-0-8-8--3-3-3-5-1-0-|

3:17-3:22
(Guitar 1)
D|---------------------------------------|
A|---------------------------------------|
F|--9-5-----------9-5---------9-5--------|
C|---------------------------------------|
G|---------------------------------------|
C|---------------------------------------|

3:17-3:24
(Guitar 2)
D|--------------------------------------------------------------|
A|--------------------------------------------------------------|
F|--------------------------------------------------------------|
C|--0-0-8-0-8-8--0-0-8-0-8-8--0-0-8-0-8-8--10-10-10-10--8-8-8-8-|
G|--0-0-8-0-8-8--0-0-8-0-8-8--0-0-8-0-8-8--10-10-10-10--8-8-8-8-|
C|--0-0-8-0-8-8--0-0-8-0-8-8--0-0-8-0-8-8--10-10-10-10--8-8-8-8-|

3:17-3:22
(Guitar 1)
D|---------------------------------------|
A|---------------------------------------|
F|--9-5-----------9-5---------9-5--------|
C|---------------------------------------|
G|---------------------------------------|
C|---------------------------------------|

3:24-3:32
(Guitar 2)
D|-----------------------------------------------------|
A|-----------------------------------------------------|
F|-----------------------------------------------------|
C|--0-0-8-0-8-8--0-0-8-0-8-8--0-0-8-0-8-8--3-3-3-5-1-0-|
G|--0-0-8-0-8-8--0-0-8-0-8-8--0-0-8-0-8-8--3-3-3-5-1-0-|
C|--0-0-8-0-8-8--0-0-8-0-8-8--0-0-8-0-8-8--3-3-3-5-1-0-|

THATS ALL PLEASE RATE.
Добавлено: 23.09.2013
Другие материалы по этой песне:
  • Аккорды и текст

Страница создана 15.03.2012
http://primanota.ru/shinedown/begin-again-chords.htm
Привет, Гость.
Предлагаем пройти революционный курс по гитаре.
Подарок от PrimaNota.Ru, забирай!