PrimaNota.ru - самый крупный в мире бесплатный архив песенных текстов, аккордов, табулатур и нот


Shinedown - Atmosphere - текст песни, таба, видео

Регистрация Запомнить меня
Войти через:  Facebook Google Twitter Vk Yandex Mail.ru

Shinedown - Atmosphere - текст песни, таба, видео

Печатать
Просмотров: 187
 Artist-Shinedown
 Song-Atmosphere
 Cd-Us&them
 G1tuning-STANDARD(eadgbe)
 G2tuning-STANDARD(eadgbe)
 This is one of the best songs, in my opinion, on the cd behind Heroes and Save Me. This
the best CD I own. I am 100% sure everything but the solo 100% right. I'm sure the
about 94% right though. There wasn't much wrong with version 3 of this song. Only 2 
things. So here it is.

 INTRO(G1)
 e|------------------------------------------------------------------------|
 B|------------------------------------------------------------------------|
 g|---------0-1p0-------------0-1p0-------------0-1p0--------------01p0----|
 D|-----1-3-------1p0-----1-3-------1p0-----1-3-------1p0------1-3------1p0|
 A|---1-----------------1-----------------1------------------1-------------|
 E|-1-----------------1-----------------1------------------1---------------|
  X2

 INTRO(G2)
 e|------------------------------------------------------------------------|
 B|------------------------------------------------------------------------|
 G|---------0-1p0-------------0-1p0-------------0-1p0-------------0-1p0----|
 D|-----1-3-------1p0-----1-3-------1p0-----1-3-------1p0-----1-3-------1p0|
 A|---1-----------------1-----------------1-----------------1--------------|
 E|-1-----------------1-----------------1-----------------1----------------|
 Start  after the G1 plays the riff once

 VERSE(G1)
 e|-------------------------------------------------|
 B|-------------------------------------------------|
 G|---------1-----------1-----------1-----------1---|
 D|-----1-3---1-----1-3---1-----1-3---1-----1-3---1-|x2
 A|---1-----------1-----------1-----------1---------|
 E|-1-----------1-----------1-----------1-----------|

 VERSE(G2)
 No Guitar here


 PRECHORUS 1(G1)
 e|-13b--13h15-17-15-15-13-13h15p13--------------------------------------|
 B|---------------------------------13p15h13-----------------------------|
 G|----------------------------------------------------------------------|
 D|------------------------------------------------6-----6-----6---------|
 A|--------------------------------------------6-8---5-8---4-8-----------|
 E|----------------------------------------------------------------------|


 PRECHORUS 1(G2)
 e|-------------------------------------|
 B|-------------------------------------|
 G|-------------------------------------|
 D|------6------------6------------6----|
 A|--6-8----------5-8----------4-8------|
 E|-------------------------------------|
 Play during uppase miny solo.


 CHORUS(G1)
 e|------------------------------------------|
 B|------------------------------------------|
 G|------------------------------------------|
 D|3--33--6\3-3--33--33-3--33--6\3-3--33--8\7|
 A|3--33--6\3-3--33--33-3--33--6\3-3--33--8\7|
 E|1--11--4\1-1--11--11-1--11--4\1-1--11--6\5|

 CHORUS(G2)
 e|---------------------------------------|
 B|---------------------------------------|
 G|---------------------------------------|
 D|3--33--33-3--33--33-3--33--33-3--33--33|
 A|3--33--33-3--33--33-3--33--33-3--33--33|
 E|1--11--11-1--11--11-1--11--11-1--11--11|

 INTRO
 VERSE X2

 PRECHORUS 2(G1)
 e|---------------------------------------------------------|
 B|---------------------------------------------------------|
 G|-6h8p6h10------------------------------------------------|
 D|----------8p6h6p6--------------------------6-----6-----6-|
 A|------------------10p8p6h8p6-----------6-8---5-6---4-6---|
 E|-----------------------------4/8p6h8---------------------|

 PRECHORUS 1(G2)
 CHORUS


 BRIDGE
 e|---------------------------------|
 B|---------------------------------|
 G|---------------------------------|
 D|3--33--6\3-3--33--33-3--33--6\3--|
 A|3--33--6\3-3--33--33-3--33--6\3--|
 E|1--11--4\1-1--11--11-1--11--4\1--|

 e|------------------------------------------------|
 B|------------------------------------------------|
 G|------------------------------------------------|
 D|----6-----6-----6-----6-----6-----6-----6-----6-|
 A|6-8---5-8---4-8---6-8---6-8---5-8---4-8---6-8---|
 E|------------------------------------------------|

 BRIDGE(G2)
 No guitar here


 SOLO(G1)
 e|---------------------------------------------------------------------------|
 B|---------------------------------------------------------------------------|
 G|-10b-10p8------10p8--13p10-13p10--------13p10-------13p10-------13p10------|
 D|----------10p8-------------------13p10--------13p10-------13p10------13p10-|
 A|---------------------------------------------------------------------------|
 E|---------------------------------------------------------------------------|

 e|-------------------------------------------------------------------------|
 B|------------------------------------------------------------------16h1816|
 G|-15p13-15p13-15p13-15p13------15p13-------15p13-------15p13--------------|
 D|------------------------15p13-------15p13-------15p13-------15p13--------|
 A|-------------------------------------------------------------------------|
 E|-------------------------------------------------------------------------|

 e|---------------------------------------------------------------------------|
 B|---------------------------------------------------------------------------|
 G|19p17-17p15h17---17p15h17--------------------------------------------------|
 D|---------------------------20p18h20----------------------------------------|
 A|-------------------------------------18h20-----------------6h8-------10h11-|
 E|----------------------------------------------8--1-3-6-8p6-----8h10p8------|

 e|------------------------------------------------------------------18h20p18-|
 B|-----------13--16b-16b-16b-16b-18-18--16h18p16h18p16h20p18h20p18-----------|
 G|-------9-------------------------------------------------------------------|
 D|11b-10b--------------------------------------------------------------------|
 A|---------------------------------------------------------------------------|
 E|---------------------------------------------------------------------------|
 e|h20p18h20p18h20p18h21p18h21p18h22-22-22b-----------------------------------|
 B|---------------------------------------------------------------------------|
 G|---------------------------------------------------------------------------|
 D|---------------------------------------------------------------------------|
 A|---------------------------------------------------------------------------|
 E|---------------------------------------------------------------------------|


 SOLO(G2)
 e|----------------------------------|
 B|----------------------------------|
 G|----------------------------------|
 D|3--33--33-3-33-33-3-33-33-3-33-33-|X?
 A|3--33--33-3-33-33-3-33-33-3-33-33-|
 E|1--11--11-1-11-11-1-11-11-1-11-11-|

 BRIDGE

 INTRO(G2)

 2nd solo(G1)

 e|---------15h17h18-18b|-----------------|----------------------------|
 B|-13h15p13------------|-----------------|----------------------------|
 G|---------------------|13h15p13---------|------------------3h6-------|
 D|---------------------|---------13h15p13|-----------3h4h6p3----------|
 A|---------------------|-----------------|-----4h6-4-----------6h9p6h9|
 E|---------------------|-----------------|3h6p3-----------------------|

thats it.
Добавлено: 08.10.2013
Другие материалы по этой песне:
  • Аккорды и текст

Страница создана 08.10.2013
http://primanota.ru/shinedown/atmosphere-chords.htm
Привет, Гость.
Предлагаем пройти революционный курс по гитаре.
Подарок от PrimaNota.Ru, забирай!