PrimaNota.ru - самый крупный в мире бесплатный архив песенных текстов, аккордов, табулатур и нот


Shinedown - Adrenaline - таба, видео

Регистрация Запомнить меня
Войти через:  Facebook Google Twitter Vk Yandex Mail.ru

Shinedown - Adrenaline - таба, видео

Печатать
Просмотров: 216
Shinedown-Adrenaline
Amaryllis (2012)
Drop C# (C#, G#, C#, F#, A#, D#) (Db, Ab, Db, Gb, Bb, Eb) Enharmonic Tuning
Tabbed by Ryan Ryngaert

Intro x2
D#--------------------------|
A#--------------------------|
F#--------------------------|
C#-7---7---7---7-7----------|
G#-5---5---5---5-5--3-5-3-6-|
C#---0---0---0------3-5-3-6-|

Intro B x4
D#---------------------------------------------|
A#---------------------------------------------|
F#-----------13-13-13-----------13-13----------|
C#---------------------------------------------|
G#-----------11-11-11-----------11-11--3-5-3-6-|
C#-0--0-0--0----------0--0-0--0--------3-5-3-6-|

Verse x8
D#----------------------------------------|
A#----------------------------------------|
F#-------13-13-13-------13-13-13----------|
C#--------------------------------7---7/8-|
G#-------11-11-11-------11-11-11--5---5/6-|
C#-0-0-0----------0-0-0-------------0-----|

Chorus x2
D#--------------------------------------------------------------------|
A#--------------------------------------------------------------------|
F#--------------------------------------------------------------------|
C#--------------------------------------------------------------------|
G#-8-8-8-8-8-8-8-8-8-8-8-8-8-10-10-10-0-0-0-0-0-0-0-0-0-0-0-0-0-0-0-0-|
C#-8-8-8-8-8-8-8-8-8-8-8-8-8-10-10-10-0-0-0-0-0-0-0-0-0-0-0-0-0-0-0-0-|

D#---------------------------------------------------------------------------|
A#---------------------------------------------------------------------------|
F#--------------------------------------12---12---12/14-----12---12----12/14-|
C#---------------------------------------------------------------------------|
G#-3-3-3-3-3-3-3-3-5-5-5-5-5-5-5-5------10---10---10/12-----10---10----10/12-|
C#-3-3-3-3-3-3-3-3-5-5-5-5-5-5-5-5--0-0----0----0-------0-0----0-----0-------|

End of chorus
D#---------------------------------|
A#---------------------------------|
F#---------------------------------|
C#---------------------------------|
G#-3-3-3-3-3-3-3-3-5-5-5-5-5-5-5-5-|
C#-3-3-3-3-3-3-3-3-5-5-5-5-5-5-5-5-|


Pre-Verse x2
D#---------------------------------------------|
A#---------------------------------------------|
F#-----------13-13-13-----------13-13----------|
C#---------------------------------------------|
G#-----------11-11-11-----------11-11--3-5-3-6-|
C#-0--0-0--0----------0--0-0--0--------3-5-3-6-|

Verse x6
D#----------------------------------------|
A#----------------------------------------|
F#-------13-13-13-------13-13-13----------|
C#--------------------------------7---7/8-|
G#-------11-11-11-------11-11-11--5---5/6-|
C#-0-0-0----------0-0-0-------------0-----|


Chorus x2
D#--------------------------------------------------------------------|
A#--------------------------------------------------------------------|
F#--------------------------------------------------------------------|
C#--------------------------------------------------------------------|
G#-8-8-8-8-8-8-8-8-8-8-8-8-8-10-10-10-0-0-0-0-0-0-0-0-0-0-0-0-0-0-0-0-|
C#-8-8-8-8-8-8-8-8-8-8-8-8-8-10-10-10-0-0-0-0-0-0-0-0-0-0-0-0-0-0-0-0-|

D#---------------------------------------------------------------------------|
A#---------------------------------------------------------------------------|
F#--------------------------------------12---12---12/14-----12---12----12/14-|
C#---------------------------------------------------------------------------|
G#-3-3-3-3-3-3-3-3-5-5-5-5-5-5-5-5------10---10---10/12-----10---10----10/12-|
C#-3-3-3-3-3-3-3-3-5-5-5-5-5-5-5-5--0-0----0----0-------0-0----0-----0-------|

End of chorus
D#---------------------------------|
A#---------------------------------|
F#---------------------------------|
C#---------------------------------|
G#-3-3-3-3-3-3-3-3-5-5-5-5-5-5-5-5-|
C#-3-3-3-3-3-3-3-3-5-5-5-5-5-5-5-5-|

Interlude
D#-------------------------------------------------------------------------|
A#-------------------------------------------------------------------------|
F#-------------------------------------------------------------------------|
C#-19--17--15--12----19--17--15--12----19--17--15--12----19--17--15--12----|
G#-------------------------------------------------------------------------|
C#-------------------------------------------------------------------------|

Build-up
D#------------------------------------------------------------------|
A#------------------------------------------------------------------|
F#------------------------------------------------------------------|
C#------------------------------------------------------------------|
G#------------------------------------------------------------------|
C#--0--0--0--0--0--0--0--0--0-12-0-12-0-12-0-12-0-12-0-12-0-12-0-12-|

D#--------------------------------------------------|
A#--------------------------------------------------|
F#--------------------------------------------------|
C#-7-7-7-7-7-7-7-7-7-7-7-7-7-7-7-7----7-7----7-7----|
G#-5-5-5-5-5-5-5-5-5-5-5-5-5-5-5-5----5-5----5-5----|
C#--------------------------------------------------|

Solo (Tremolo Pick)         x2
D#--(13)--(15)--(17)--(11)--|-----------------------------------|
A#--------------------------|-----------------------------------|
F#--(10)--(12)--(14)--(9)---|9h10p9----7h9p7----5h7p5---4h5p4---|
C#--------------------------|-------10--------9-------7-------5-|
G#--------------------------|-----------------------------------|
C#--------------------------|-----------------------------------|

D#-15-14-15-14-15/17--20-19-20-19-20/22-|
A#--------------------------------------|
F#-12-11-12-11-12/14--17-16-17-16-17/19-|
C#--------------------------------------|
G#--------------------------------------|
C#--------------------------------------|

Chorus x2
D#--------------------------------------------------------------------|
A#--------------------------------------------------------------------|
F#--------------------------------------------------------------------|
C#--------------------------------------------------------------------|
G#-8-8-8-8-8-8-8-8-8-8-8-8-8-10-10-10-0-0-0-0-0-0-0-0-0-0-0-0-0-0-0-0-|
C#-8-8-8-8-8-8-8-8-8-8-8-8-8-10-10-10-0-0-0-0-0-0-0-0-0-0-0-0-0-0-0-0-|

x2
D#---------------------------------------------------------------------------|
A#---------------------------------------------------------------------------|
F#--------------------------------------12---12---12/14-----12---12----12/14-|
C#---------------------------------------------------------------------------|
G#-3-3-3-3-3-3-3-3-5-5-5-5-5-5-5-5------10---10---10/12-----10---10----10/12-|
C#-3-3-3-3-3-3-3-3-5-5-5-5-5-5-5-5--0-0----0----0-------0-0----0-----0-------|

Last time through chorus
D#---------------------------------|
A#---------------------------------|
F#---------------------------------|
C#---------------------------------|
G#-3-3-3-3-3-3-3-3-5-5-5-5-5-5-5-5-|
C#-3-3-3-3-3-3-3-3-5-5-5-5-5-5-5-5-|

Intro B x4
D#---------------------------------------------|
A#---------------------------------------------|
F#-----------13-13-13-----------13-13----------|
C#---------------------------------------------|
G#-----------11-11-11-----------11-11--3-5-3-6-|
C#-0--0-0--0----------0--0-0--0--------3-5-3-6-|
Добавлено: 01.07.2013
Другие материалы по этой песне:
  • Аккорды и текст

Страница создана 01.07.2013
http://primanota.ru/shinedown/adrenaline-chords.htm
Привет, Гость.
Предлагаем пройти революционный курс по гитаре.
Подарок от PrimaNota.Ru, забирай!