PrimaNota.ru - самый крупный в мире бесплатный архив песенных текстов, аккордов, табулатур и нот


Shimokawa Mikuni - Tomorrow - таба, видео

Регистрация Запомнить меня
Войти через:  Facebook Google Twitter Vk Yandex Mail.ru

Shimokawa Mikuni - Tomorrow - таба, видео

Печатать
Просмотров: 217
My guitar cover http://www.youtube.com/watch?v=BmulwhU8efc

E|---------------------------------------------------------------------------|
B|--8/10~-8-10---11-10~-----------------------66-88-6-xx------6--------------|
G|-------------------------------------7-10---55-77-5-xx-5--5-5--------------|
D|--------------------------8-10-8~--8--------33-55-3-xx-5--5-3--------------|
A|-------------------------------------------------------3--3----------------|
E|---------------------------------------------------------------------------|


E|--------------------------|
B|--15-13~--12-14-14-13~----|
G|--------------------------|
D|--------------------------|
A|--------------------------|
E|--------------------------|



E|---------------------------------------------------------------------------|
B|---------------------------------------------------------------------------|
G|---------------------------------------------------------------------------|
D|-------------------5-5-5--5--5-5-5----7-7-7--7--7-7-7---3-3-3--3--3-3-3----|
A|-3-3-3--3--3-3-3---3-3-3--3--3-3-3----5-5-5--5--5-5-5---1-1-1--1--1-1-1----|
E|-1-1-1--1--1-1-1-----------------------------------------------------------|
       p                 p                  p                 p

E|---------------------------------------------------------------------------|
B|---------------------------------------------------------------------------|
G|---------------------------------------------------------------------------|
D|-------------------5-5-5--5--5-5-5---7-7-7--5--5-5-5-----------------------|
A|-3-3-3--3--3-3-3---3-3-3--3--3-3-3---5-5-5--3--3-3-3-----------------------|
E|-1-1-1--1--1-1-1-----------------------------------------------------------|
       p                 p                 p


E|----------------------|
B|----------------------|
G|----------------------|
D|--3-3-3--5-\3/5-------|
A|--1-1-1--3-\1/3-------|
E|----------------------|
        p


E|---------------------------------------------------------------------------|
B|---------------------------------------------------------------------------|
G|---------------------------------------------------------------------------|
D|---------------------------------------------------------------------------|
A|--5--5-5--5--5-5--5--5-----7--7-7--7--7-7--7--7----------------------------|
E|--3--3-3--3--3-3--3--3-----5--5-5--5--5-5--5--5----------------------------|
       p p     p p     p        p p     p p     p


E|---------------------------------------------------------------------------|
B|---------------------------------------------------------------------------|
G|---------------------------------------------------------------------------|
D|--3--3-3--3--3-3--3--3--------5--5-5--5--5-5--5--5-------------------------|
A|--1--1-1--1--1-1--1--1--------3--3-3--3--3-3--3--3-------------------------|
E|---------------------------------------------------------------------------|
       p p     p p     p           p p     p p     p


E|---------------------------------------------------------------------------|
B|---------------------------------------------------------------------------|
G|---------------------------------------------------------------------------|
D|---------------------------------------------------------------------------|
A|--5--5-5--5--5-5--5--5-----7--7-7--7--7-7--7--7----------------------------|
E|--3--3-3--3--3-3--3--3-----5--5-5--5--5-5--5--5----------------------------|
       p p     p p     p        p p     p p     p


E|----------------------------------------------------------------------------|
B|----------------------------------------------------------------------------|
G|---------------------------------------------------5h7p(x8)-----------------|
D|--3--3-3--3--3-3--3--3--------5--5-5--5--5-5-5-5----------------------------|
A|--1--1-1--1--1-1--1--1--------3--3-3--3--3-3-3-3----------------------------|
E|----------------------------------------------------------------------------|
       p p     p p     p           p p     p p   p    trill


E|---------------------------------------------------------------------------|
B|---------------------------------------------------------------------------|
G|---------------------------------------------------------------------------|
D|------5---7---3----------5---7---3---------------5-----7--x-5--x-3---------|
A|--3---3---5---1------3---3---5---1----------3----3-----5--x-3--x-1---------|
E|--1------------------1----------------------1------------------------------|


E|---------------------------------------------------------------------------|
B|--8/10~-8-10---11-10~------------------------------------------------------|
G|-------------------------------------7-10----------------------------------|
D|--------------------------8-10-8~--8---------------------------------------|
A|---------------------------------------------------------------------------|
E|---------------------------------------------------------------------------|



E|---------------------------------------------------------------------------|
B|--66-88-6-xx------66-8-xx----66--88-----11------------------6--x-6--x-6----|
G|--55-77-5-xx-5--5-55-7-xx-5--55--77-----10(x8)--------------5--x-5--x-5----|
D|--33-55-3-xx-5--5-33-5-xx-5--33--55-----8-------------------3--x-3--x-3----|
A|-------------3--3---------3------------------------------------------------|
E|---------------------------------------------------------------------------|
Добавлено: 03.10.2013
Вам также может быть интересно:
Другие материалы по этой песне:
  • Аккорды и текст

Страница создана 03.10.2013
http://primanota.ru/shimokawa-mikuni/tomorrow-chords.htm
Привет, Гость.
Предлагаем пройти революционный курс по гитаре.
Подарок от PrimaNota.Ru, забирай!