PrimaNota.ru - самый крупный в мире бесплатный архив песенных текстов, аккордов, табулатур и нот


Shihan Mihiranga - Sanda Savi - таба, видео

Регистрация Запомнить меня
Войти через:  Facebook Google Twitter Vk Yandex Mail.ru

Shihan Mihiranga - Sanda Savi - таба, видео

Печатать
Просмотров: 71
Уроки эстрадного вокала в Санкт-Петербурге
-------------------------------------------------------------------------------
                          Sanda Sawi - Shihan Mihiranga
-------------------------------------------------------------------------------
Tabbed by: B.L.Gayal Kasunjith
E-mail: gkasunjith@gmail.com

Tuning: Standard
   
    Em                         Cmaj                   Dmaj


e|-----------------------|---------------------|------------0-h2p0-------------|
B|-------------0-h1p0----|----------0-h1p0-----|---------3----------3----------|
G|----------0----------0-|-------0---------0---|------2------------------------|
D|-------2---------------|-----2---------------|----0--------------------------|
A|----2------------------|---3-----------------|-------------------------------|
E|-----------------------|---------------------|-------------------------------|
  
    


************************************

| /   slide up
| \   slide down
| h   hammer-on
| p   pull-off
| ~   vibrato
| +   harmonic
| x   Mute note
| b   Bend
| pb  Pre-bend
| br  Bend release
| pbr Pre-bend release
| brb Bend release bend

************************************
Добавлено: 02.01.2016
Вам также может быть интересно:
Другие материалы по этой песне:
  • Аккорды и текст

Страница создана 02.01.2016
http://primanota.ru/shihan-mihiranga/sanda-savi-chords.htm
Привет, Гость.
Предлагаем пройти революционный курс по гитаре.
Подарок от PrimaNota.Ru, забирай!