PrimaNota.ru - самый крупный в мире бесплатный архив песенных текстов, аккордов, табулатур и нот


Sheryl Crow - Lucky Kid - текст песни, таба, видео

Регистрация Запомнить меня
Войти через:  Facebook Google Twitter Vk Yandex Mail.ru

Sheryl Crow - Lucky Kid - текст песни, таба, видео

Печатать
Просмотров: 95
Авторы: Jeff Trott, Sheryl Crow

 INTRO:

 E ------------------------------------------------|
 B ------------------------------------------------|
 G ------------------------------------------------|
 D -9--9--x--9--9--9--x--9--9--9--x--9--9--9--x----|
 A -9--9--x--9--9--9--x--9--9--9--x--9--9--9--x----|
 E -7--7--x--7--7--7--x--7--7--7--x--7--7--7--x--0-|(x2)

 VERSE 1: Play 2 times

 Repeat INTRO and then play this

 E ------------------------------------------------|
 B ------------------------------------------------|
 G ------------------------------------------------|
 D -7--7--x--7--7--7--x--7--7--7--x--7--7--7--x----|
 A -7--7--x--7--7--7--x--7--7--7--x--7--7--7--x----|
 E -5--5--x--5--5--5--x--5--5--5--x--5--5--5--x--0-|

 E ------------------------------------------------|
 B ------------------------------------------------|
 G ------------------------------------------------|
 D -5--5--x--5--5--5--x-----7--7--x--7--7--7--x----|
 A -5--5--x--5--5--5--x-----7--7--x--7--7--7--x----|
 E -3--3--x--3--3--3--x--0--5--5--x--5--5--5--x--0-|

 Here's the riff that is played during the verses

 E ----------------|
 B ----------------|
 G ---------7/9--7-|
 D ------7--7/9--7-|
 A -7h9------------|
 E ----------------|


 CHORUS 1:

 (Guitar 1)

 Part 1

 E ------------------------------------|
 B ------------------------------------|
 G ----------9--9--x--------------9--9-|
 D -9--9--x--9--9--x--9--9--x--x--9--9-|
 A -9--9--x--7--7--x--9--9--x--x--7--7-|
 E -7--7--x-----------7--7--x--x-------|(x2)

 Part 2

 Strum freely

    Oh oh oh oh oh you're a lucky kid

 E -3--------------------------------|
 B -3-----------3-----------2--------|
 G -0-----------2-----------2--------|
 D -0-----------0-----------2--------|
 A -------------------------0--------|
 E -3-----------2--------------------|

 Part 3

 E -----------------------|
 B -----------------------|
 G ----------9--9--x------|
 D -9--9--x--9--9--x--9---|
 A -9--9--x--7--7--x--9---|
 E -7--7--x-----------7---|


 (Guitar 2)

 E -------------------------------|
 B -------------------------------|
 G -------------------------------|
 D -9--9-----------9--9-----------|
 A -9--9--11/12----9--9--11/12-11-|
 E -7--7-----------7--7-----------|(x2)

    Oh oh oh oh oh you're a lucky kid

 E ----------------------------------|
 B ----------------------------------|
 G -12----------7-----------14-------|
 D -12----------7-----------14-------|
 A -10----------9-----------12-------|
 E ----------------------------------|

 E ----------------|
 B ----------------|
 G ----------------|
 D -9--9---------9-|
 A -9--9--11/12--9-|
 E -7--7---------7-|

 CHORUS RIFF:

 E ---------------------|
 B ---------------------|
 G ---------------------|
 D ----------7----------|
 A ----5-----------5--7-|
 E -7-----7-----7-------|


 VERSE 2: Same chords as VERSE 1, but with
          different strumming.


 CHORUS 2: Play the 3 different parts
           from CHORUS 1 in this order

 | Part 1 | Part 2 | Part 1 (1 time only) |

 | Part 2 | Part 3 |

 Repeat CHORUS RIFF


 BRIDGE:

 Alternate note in ( ) for a fuller sound

       woo hoo hoo  hoo

 E ---------------------------|
 B ----3-3-3-3-3-3--3-----3/5-|
 G ----1-1-1-1-1-1--1---------|
 D --2-2-2-2-2-2-2--2---------|
 A ---------------------------|
 E -(0)-----------------------|(x2)

 Strum the last chord (*) rapidly 5 times

       woo hoo hoo  hoo!
                          *
 E ---------------------------|
 B ----6-6-6-6-6-8--9-----11--|
 G ----4-4-4-4-4-6--7------9--|
 D --5-5-5-5-5-5-7--8-----10--|
 A ---------------------------|
 E ---------------------------|


 CHORUS 3: Play the 3 different parts from
           CHORUS 1, along with one addition,
           in this order

 | Part 1 (x4) | Part 2 | Part 1 | Part 2 |

 |   Part 1    | Part 2 | Then this

 E -----------------------------------------------|
 B -----------------------------------------------|
 G -----------------------------------------------|
 D -9\x--x--x--x--x--x--9--9--9--x--x--x--x--x--x-|
 A -9\x--x--x--x--x--x--9--9--9--x--x--x--x--x--x-|
 E -7\x--x--x--x--x--x--7--7--7--x--x--x--x--x--x-|

 Then this

 | Part 2 | Part 3 |


 OUTRO:

 Both of these parts repeat to the
 end of the song and fade out

 (Guitar 1)

 E -------------------------------------------------|
 B -------------------------------------------------|
 G -------------------------------------------------|
 D ----4-----------4-----------4---------------4----|
 A -------5--7--------5--7--------5--7------5-----7-|
 E -7------------7-----------7-----------7----------|

 (Guitar 2)

 E -------7---7-------7-----------7---7--------7----------|
 B -------7---7-------7---10------7---7--------7----------|
 G -----------------------11------------------------------|
 D ------------------------9------------------------7p6\4-|
 A -------------------------------------------------------|
 E -------------------------------------------------------|

 To play rhythm during the OUTRO,
 repeat this and fade out

 E ------------------------|
 B ------------------------|
 G -------------------9--x-|
 D -x--x--9--x--x--x--9--x-|
 A -x--x--9--x--x--x--7--x-|
 E -x--x--7--x--x--x-------|
Добавлено: 12.12.2015
Другие материалы по этой песне:
  • Аккорды и текст

Страница создана 25.06.2012
http://primanota.ru/sheryl-crow/lucky-kid-chords.htm
Привет, Гость.
Предлагаем пройти революционный курс по гитаре.
Подарок от PrimaNota.Ru, забирай!