PrimaNota.ru - самый крупный в мире бесплатный архив песенных текстов, аккордов, табулатур и нот


Sheryl Crow - Live It Up - текст песни, бас-таба, видео

Регистрация Запомнить меня
Войти через:  Facebook Google Twitter Vk Yandex Mail.ru

Sheryl Crow - Live It Up - текст песни, бас-таба, видео

Печатать
Просмотров: 121
Уроки эстрадного вокала в Санкт-Петербурге
-------------------------------------------------------------------------------
                             Sheryl Crow - Live it up
-------------------------------------------------------------------------------
Tabbed by: Mike Kunz
E-mail: rmjk21@embarqmail.com

  Intro
  guitars-
G|------------------------|
D|------------------------|
A|------------------------|
E|------------------------|                    
                                               Gettin car-jacked
G|----------------------|---------------------|---------------------|--------------------|
D|----9-----------4-----|---9-----------4-----|---9-----------4-----|---9----------4-----|
A|-------5h7--5-7---7-5-|------5h7--5-7---7-5-|------5h7--5-7---7-5-|-----5h7--5-7---7-5-|
E|-7--------------------|7--------------------|7--------------------|7-------------------|

  Escape by
G|---------------------|--------------------|----------------------|---------------------|
D|---9-----------4-----|--------------------|----9-----------4-----|----9----------4-----|
A|------5h7--5-7---7-5-|--------------------|-------5h7--5-7---7-5-|------5h7--5-7---7-5-|
E|7--------------------|-3-3-3-3-3-3-3-3--33|-7--------------------|7--------------------|

  So mistic
G|---------------------|----------------------------------------|-------------------|
D|---9-----------4-----|----------------------------------------|-------------------|
A|------5h7--5-7---7-5-|----------------------------------------|---------5-5-5-5-5-|
E|7--------------------|-5-5-5-5-5-5-5-5-5-5-5-5-5-5-5-5-5-5-5-5|-3-3-3-3-----------|


  Just like theres no tommorow
G|-----------------|-----------------------------------|---------------------|
D|-----------------|-----------------------------------|---------------------|
A|-7-7-7-7-7-7-7-7-|---------5-5-5-5-5-7-7-7-7-7-7-7-7-|---------5-5-5-5-5-5-|
E|-----------------|-3-3-3-3---------------------------|-3-3-3-3-------------|

 
  no time left to borrow
G|-----------------|-------------|----------------------|--------------------|
D|-----------------|-------------|----------------------|--------------4-----|
A|-7-7-7-7-7-7-7-7-|-7-7-7-7-7-7-|----------------------|----------5-7---7-5-|
E|-----------------|-------------|----------------------|--------------------|


  You're gettin worked up
G|----------------------|---------------------|---------------------|-----------------|
D|----9-----------4-----|---9-----------4-----|---9-----------4-----|-----------------|
A|-------5h7--5-7---7-5-|------5h7--5-7---7-5-|------5h7--5-7---7-5-|-----------------|
E|-7--------------------|7--------------------|7--------------------|3-3-3-3-3-3-3--33|

  Put on your backpack
G|----------------------|---------------------|---------------------|
D|----9-----------4-----|---9-----------4-----|---9-----------4-----|
A|-------5h7--5-7---7-5-|------5h7--5-7---7-5-|------5h7--5-7---7-5-|
E|-7--------------------|7--------------------|7--------------------|

  You better get ready
G|----------------------------------------|-------------------|----------------|
D|----------------------------------------|-------------------|----------------|
A|----------------------------------------|---------5-5-5-5-5-|7-7-7-7-7-7-7-7-|
E|-5-5-5-5-5-5-5-5-5-5-5-5-5-5-5-5-5-5-5-5|-3-3-3-3-----------|----------------|


  Live it up
G|-----------------------------------|---------------------|
D|-----------------------------------|---------------------|
A|---------5-5-5-5-5-7-7-7-7-7-7-7-7-|---------5-5-5-5-5-5-|
E|-3-3-3-3---------------------------|-3-3-3-3-------------|

  No time left to borrow
G|-----------------|-------------|---------------|--------------------|
D|-----------------|-------------|---------------|--------------------|
A|-7-7-7-7-7-7-7-7-|-7-7-7-7-7-7-|---------------|--------------------|
E|-----------------|-------------|-7-------------|-7------------------|

G|------------------|----------------|
D|------------------|----------------|
A|------------------|----------------|
E|-7----------------|-7--------------|

      No reason to worry
G|----------------------------------------|-------------------|----------------|
D|----------------------------------------|-------------------|----------------|
A|----------------------------------------|---------5-5-5-5-5-|7-7-7-7-7-7-7-7-|
E|-5-5-5-5-5-5-5-5-5-5-5-5-5-5-5-5-5-5-5-5|-3-3-3-3-----------|----------------|

  Live it up
G|-----------------------------------|---------------------|
D|-----------------------------------|---------------------|
A|---------5-5-5-5-5-7-7-7-7-7-7-7-7-|---------5-5-5-5-5-5-|
E|-3-3-3-3---------------------------|-3-3-3-3-------------|

  No time left to borrow
G|-----------------|-----------------|-----------------|-------------------|
D|-----------------|-----------------|-----------------|-------------------|
A|-7-7-7-7-7-7-7-7-|-7-7-7-7-7-7-7-7-|-7-7-7-7-7-7-7-7-|-7-7-7-7-7-7-7-7-7-|
E|-----------------|-----------------|-----------------|-------------------|

  Outro
G|----------------------|---------------------|----------------------|
D|----9-----------4-----|---9-----------4-----|---9-----------4------|
A|-------5h7--5-7---7-5-|------5h7--5-7---7-5-|------5h7--5-7---7-5--|
E|-7--------------------|7--------------------|7---------------------|
Добавлено: 23.12.2013
Другие материалы по этой песне:
  • Аккорды и текст

Страница создана 02.05.2012
http://primanota.ru/sheryl-crow/live-it-up-chords.htm
Привет, Гость.
Предлагаем пройти революционный курс по гитаре.
Подарок от PrimaNota.Ru, забирай!