PrimaNota.ru - самый крупный в мире бесплатный архив песенных текстов, аккордов, табулатур и нот


Sherwood - Pray Forgive Me These Mistakes - таба, видео

Регистрация Запомнить меня
Войти через:  Facebook Google Twitter Vk Yandex Mail.ru

Sherwood - Pray Forgive Me These Mistakes - таба, видео

Печатать
Просмотров: 24
Sherwood
Pray Forgive Me These Mistakes
Sherwood EP

E-------------------|
B---------------0---|
G----0------------0-|
D------0------------|
A-3-----------------|
E------------0------|

I've tried  to mark the place.
I've cried, screamed your name.
But all has been in vain.
My tired self remains.

E-2------3---3---2------3---3---3---3---2---3---3-|
B-3------3---3---3------3---3---3---3---3---3---3-|
G-2------0---0---2------0---0---0---0---2---0---0-|
D-0------2---0---0------2---0---2---2---0---2---2-|
A--------3---2----------3---2---2---3-------2---3-|
E------------3--------------3---0-----------0-----|
My attempts at love are not worth speaking of...
But my dear friend, I'll try again.


E------------------0---------|
B--------------------------3-|
G-------0--------------------|
D---0----------2p0-----4p0---|
A-3---3----------------------|
E----------------------------|
3x

E------------------0-------3-|
B----------------------------|
G-------0--------------------|
D---0----------2p0-----4p0---|
A-3---3----------------------|
E----------------------------|

E-2------3---3---2------3---3---3---3---2---3---3-|
B-3------3---3---3------3---3---3---3---3---3---3-|
G-2------0---0---2------0---0---0---0---2---0---0-|
D-0------2---0---0------2---0---2---2---0---2---2-|
A--------3---2----------3---2---2---3-------2---3-|
E------------3--------------3---0-----------0-----|
My attempts at love are not worth speaking of...
But my dear friend, I'll try again.

Questions?
Email at cory.roesch@yahoo.com
Добавлено: 20.05.2016
Другие материалы по этой песне:
  • Аккорды и текст

Страница создана 20.05.2016
http://primanota.ru/sherwood/pray-forgive-me-these-mistakes-chords.htm
Привет, Гость.
Предлагаем пройти революционный курс по гитаре.
Подарок от PrimaNota.Ru, забирай!