PrimaNota.ru - самый крупный в мире бесплатный архив песенных текстов, аккордов, табулатур и нот


Sherwood - Middle Of The Night - таба, видео

Регистрация Запомнить меня
Войти через:  Facebook Google Twitter Vk Yandex Mail.ru

Sherwood - Middle Of The Night - таба, видео

Печатать
Просмотров: 104
first tab and it rocks...

tuning:half step down
eb
bb
gb
db
ab
Eb

[intro]

eb|-x-x--x-x-x-x---x-x-x-x--x-x|
bb|-7-7--7-7-7-7---7-7-7-7--7-7|
gb|-7-7--7-7-7-7---7-7-7-7--7-7|
db|-0-0--0-0-0-0---0-0-0-0--0-0|  x2
ab|-x-x--x-x-x-x---x-x-x-x--x-x|
Eb|-7-7--7-7-7-7---7-7-7-7--7-7|


[verse]

1.tonight im staring at the moonlight..felt so right....
2.and i could say it was a good time...hes got you right...

eb|-x-x--x-x-x-x---x-x-x-x--x-x-----3-3-3--3-3-3--3-3-3--|
bb|-7-7--7-7-7-7---7-7-7-7--7-7-----3-3-3--3-3-3--3-3-3--|
gb|-7-7--7-7-7-7---7-7-7-7--7-7-----0-0-0--0-0-0--0-0-0--|
db|-0-0--0-0-0-0---0-0-0-0--0-0-x2--0-0-0--0-0-0--2-2-2--|:
ab|-x-x--x-x-x-x---x-x-x-x--x-x-----2-2-2--2-2-2--2-2-2--|
Eb|-7-7--7-7-7-7---7-7-7-7--7-7-----3-3-3--3-3-3--x-x-x--|

[bridge]

2. where he wants you         right...where he wants you

eb|-x-x---x--x--x--x-x-x-------3-3-3--3-3-3--3-3-3---0-0-0--0-0-0--|
bb|-x-x---x--x--x--x-x-x-------3-3-3--3-3-3--3-3-3---0-0-0--2-2-2--|
gb|-8-8---11-11-11-7-9-7-------0-0-0--0-0-0--0-0-0---2-2-2--3-3-3--|
db|-9-9---x--x--x--x-x-x--x2---0-0-0--0-0-0--2-2-2---2-2-2--4-4-4--|
ab|-9-9---9--9--9--5-7-5-------2-2-2--2-2-2--2-2-2---0-0-0--4-4-4--|
Eb|-7-7---x--x--x--x-x-x-------3-3-3--3-3-3--x-x-x---0-0-0--0-0-0--|

[chorus]

  hes goin outside...           tell me what im supposed to do...

eb|-3-3-3--3-3-3--x-x-x-x-x-x----0-0-0--0-0-0---0-0-0--0-0-0--|
bb|-3-3-3--3-3-3--7-7-7-7-7-7----5-5-5--5-5-5---5-5-5--5-5-5--|
gb|-0-0-0--0-0-0--7-7-7-7-7-7----6-6-6--6-6-6---7-7-7--6-6-6--|
db|-0-0-0--0-0-0--0-0-0-0-0-0----7-7-7--7-7-7---0-0-0--7-7-7--| x3
ab|-2-2-2--2-2-2--x-x-x-x-x-x----0-0-0--0-0-0---0-0-0--0-0-0--|
Eb|-3-3-3--3-3-3--7-7-7-7-7-7----x-x-x--x-x-x---x-x-x--x-x-x--|

and repeat


missing a part due to the homo in daphne loves derby getting in the way ill figure it 
and add it later...enjoy
Добавлено: 19.05.2012
Другие материалы по этой песне:

Страница создана 17.05.2012
http://primanota.ru/sherwood/middle-of-the-night-chords.htm
Привет, Гость.
Предлагаем пройти революционный курс по гитаре.
Подарок от PrimaNota.Ru, забирай!