PrimaNota.ru - самый крупный в мире бесплатный архив песенных текстов, аккордов, табулатур и нот


Sherwood - Around You - таба, видео

Регистрация Запомнить меня
Войти через:  Facebook Google Twitter Vk Yandex Mail.ru

Sherwood - Around You - таба, видео

Печатать
Просмотров: 69
Новый альбом группы 'Черный Кузнец' по культовому сериалу 'Сверхъестественное'!
Sherwood
Around You
QU

Guitar 1 & 2 - Standard Tuning
Guitar 3 - Drop D Tuning

Intro 

Guitar 1 - Harmonics - Whole song except when noted
E--------------------
B----------------7---
G----------7--------7
D--7--12------7------
A--------------------
D--------------------

Guitar 2 (acoustic) - comes in after Guitar 1 plays twice through
D G D G D

Verse 1
Em
I'm on the way home
G                        D
 I'm on the way home to you
Em
 So take off your makeup
G                           D
 Take off your makeup with you
Em
 'Cause we're gonna wake up
G
 We're gonna wake up
      D          C       G
 The night is strange and new 
         D      C      G
 'Cause love is soaking through

Verse 2
 I wanna wake up
                     D
 I wanna wake up to you
G
 I wanna wake up
Em                   D
 I wanna wake up to you

(Guitar 1 comes back in)

G
 'Cause we're gonna wake up
Em
 We're gonna wake up
      D          C       G
 The night is strange and new
         D      C   G
 'Cause love is soaking through
           D         C      G
 And in a daze I'll run to you
               D      C         G
 And I will throw my arms around you

D C G
2x


Guitar 3 (electric) - Solo
E---------------------------------------------
B----------------------------7-7h8108-7-------
G-----------------7---------------------7-----
D----5-2/4-7--7/9----7-5-4----------------7/12
A-5-------------------------------------------
D-0-------------------------------------------

E------------------------------------------------
B---------------------------------10-10101010-8-7
G-----------------------7------------------------
D-5p0h5-2/4-7-7p0h7-7/9----7-5-4-----------------
A------------------------------------------------
D------------------------------------------------

(No guitars)

 I'll throw (I'll throw my arms)
 My arms 
 I'll throw (I'll throw my arms)
 My arms

 (All guitars come back in)

         D
 I'll throw (I'll throw my arms)

Guitar 3
E--------------------------
B----------------7-7--7-5--
G-------------------------7
D-2/4--2/5--2/5------------
A--------------------------
D--------------------------

     C      G
 My arms around you  
   D       C G
Around you



Questions?
Email at cory.roesch@yahoo.com
Добавлено: 20.02.2018
Другие материалы по этой песне:
  • Аккорды и текст

Страница создана 20.02.2018
http://primanota.ru/sherwood/around-you-chords.htm
Привет, Гость.
Предлагаем пройти революционный курс по гитаре.
Подарок от PrimaNota.Ru, забирай!