PrimaNota.ru - самый крупный в мире бесплатный архив песенных текстов, аккордов, табулатур и нот


The Sherlocks - Make Her Mine - таба, видео

Регистрация Запомнить меня
Войти через:  Facebook Google Twitter Vk Yandex Mail.ru

The Sherlocks - Make Her Mine - таба, видео

Печатать
Просмотров: 73
-------------------------------------------------------------------------------
                             Make Her Mine - The Sherlocks
-------------------------------------------------------------------------------
Tabbed by: Daniel Dixon


e|------------------------------------------------------------------
B|------------------------------------------------------------------
G|4--4-4-4-4--7-7-7-77---------7-7---------------------7-77-7-------
D|4--4-4-4-4--7-7-7-77-5-5-5-5-7-7-7-7-5-5-5-55-5-55-5-7-77-7-7-77-7
A|2--2-2-2-2--5-5-5-55-5-5-5-5-5-5-7-7-5-5-5-55-5-55-5-5-55-5-7-77-7
E|---------------------3-3-3-3-----5-5-3-3-3-33-3-33-3--------5-55-5


Добавлено: 13.05.2016
Другие материалы по этой песне:
  • Аккорды и текст

Страница создана 13.05.2016
http://primanota.ru/sherlocks/make-her-mine-chords.htm
Привет, Гость.
Предлагаем пройти революционный курс по гитаре.
Подарок от PrimaNota.Ru, забирай!