PrimaNota.ru - самый крупный в мире бесплатный архив песенных текстов, аккордов, табулатур и нот


The Sherlocks - Live For The Moment - таба, видео

Регистрация Запомнить меня
Войти через:  Facebook Google Twitter Vk Yandex Mail.ru

The Sherlocks - Live For The Moment - таба, видео

Печатать
Просмотров: 107
-------------------------------------------------------------------------------
                            Live For The Moment - The Sherlocks
-------------------------------------------------------------------------------
Tabbed by:Jack Crofts
E-mail:

Tuning:

e|---------------------------------------------------------------------------|
B|---------------------------------------------------------------------------|
G|---10-12-14-14-12-12-14-14-12-12-14-14-12-14----10-12-14-14-12-12-14-14-12-12|
D|-12------------------------------------------12----------------------------|
A|---------------------------------------------------------------------------|
E|---------------------------------------------------------------------------|

e|---------------------------------------------------------------------------|
B|---------------------------------------------------------------------------|
G|-14-12--------10-12-14-14-12-12-14-14-12-12-14-14-12-14-----10-12-14-14-12-|
D|------------12-------------------------------------------12----------------|
D|---------------------------------------------------------------------------|
A|---------------------------------------------------------------------------|
E|---------------------------------------------------------------------------|

e|---------------------------------------------------------------------------|
B|---------------15-15-13-13-------------------------------------------------|
G|12-14-14-12-12-------------14-14-12-12-10----------------------------------|
D|---------------------------------------------------------------------------|
A|---------------------------------------------------------------------------|
E|---------------------------------------------------------------------------|


Добавлено: 26.07.2015
Другие материалы по этой песне:
  • Аккорды и текст

Страница создана 26.07.2015
http://primanota.ru/sherlocks/live-for-moment-chords.htm
Привет, Гость.
Предлагаем пройти революционный курс по гитаре.
Подарок от PrimaNota.Ru, забирай!