PrimaNota.ru - самый крупный в мире бесплатный архив песенных текстов, аккордов, табулатур и нот


Shenandoah - Two Dozen Roses - аккорды и текст, видео

Регистрация Запомнить меня
Войти через:  Facebook Google Twitter Vk Yandex Mail.ru

Shenandoah - Two Dozen Roses - аккорды и текст, видео

Печатать
Просмотров: 82
Two Dozen Roses
Shenandoah
Two dozen roses

E-------------------|---2------------------5-------------------------------0---|
B-------------------|---2------9-----------7----------------------0--------2---|
G---------------2---|---2------9-----------7------2-------1---2-------1----2---|
D-------2---4-------|---4------9-----------7-----------2-------------------2---|
A-------------------|---4------7-----------5-------------------------------0---|
E-------------------|---2------X-----------------------------------------------|

    A                         D                 E         A      D    E
    I brought flowers to your door last ni---ght
    A                       D              E              A      D    E
    I done you wrong and I want to make it right___________
    F#m               A       E   F#m                  D
    You say I'm not welcome here/I know it oughta be perfectly clear
         A      E           D            E         A    (play riff A here)
    But I can't help but wonder what it might be like ...If I had

Riff A-->    (triplet)
    E----------------|
    B------------2---| (Play before every chorus and before the last line of
    G----2--1--------|  every chorus)
    D----------------|
    A----------------|
    E----------------|

            D    E       F#m   E/F#  F#m      D    E        A
Chorus:     Two dozen roses,           and an old bottle of wine
                    F#m       E              D            E          A9
        If I really could've hung the moon, would it change your mind?
                   D     E       F#m      E/F#  F#m           D    E
        If I could cry a little harder,           and get a little less sleep
at
       A
        night,
                   F#m  E      D            E          A9
        If I had two dozen roses would it change your mind?

    A                  D            E         A      D    E
    I must have been a fool back the---n
    A                                     D           E        A      D     E
    To lose something that you can't have again___________
    F#m                  A       E   F#m                   D
    I've done all that I know to do/And second guesssed my every move
        A      E           D            E         A
    But I can't help but wonder what it might have been....If I had


            D    E       F#m   E/F#  F#m          D    E        A
Chorus:     Two dozen roses,             and an old bottle of wine
                  F#m       E              D            E          A9
        If I really could've hung the moon, would it change your mind?
                   D     E       F#m  E/F#  F#m                  D
E
        If I could cry a little harder,           and get a little less sleep
at
        A
        night,
                     F#m E      D            E          A9
        If I had two dozen roses would it change your mind?


                   D     E       F#m  E/F#  F#m                      D
 E
        If I could cry a little harder,           and get a little less sleep
at
        A
        night,

                     F#m  E      D            E             A9  Asus4   A
        If I had two dozen roses would it change your mind?

    D       E          A9                                         D
E           A9
    Baby would it change your mind?........Oh baby would you change your mind?

                                    Repeats several times
    (Fades Out)


Chords needed to play RHYTHM:
        E/F#         A9   Asus4   F#m  A   D  E
E------0-----------0------0-----2---0---2--0------------------|
B------0-----------2------3-----2---2---3--0------------------|
G------1-----------4------2-----2---2---2--1------------------|
D------2-----------2------2-----4---2---0--2------------------|
A------X-----------0------0-----4---0---X--2------------------|
E------2-----------X------X-----X---X---X--0------------------|
Добавлено: 23.02.2012
Другие материалы по этой песне:
  • Аккорды и текст

Страница создана 23.02.2012
http://primanota.ru/shenandoah/two-dozen-roses-chords.htm
Привет, Гость.
Предлагаем пройти революционный курс по гитаре.
Подарок от PrimaNota.Ru, забирай!