PrimaNota.ru - самый крупный в мире бесплатный архив песенных текстов, аккордов, табулатур и нот


Shels - The Spirit Horse - таба, видео

Регистрация Запомнить меня
Войти через:  Facebook Google Twitter Vk Yandex Mail.ru

Shels - The Spirit Horse - таба, видео

Печатать
Просмотров: 149
Intro:

------------------|
------------------|
--7--------10-----|
------------------|
------------------|  x3
6--------10-------|

------------------|
------------------|
--5--------8------|
------------------|
------------------|
4--------8--------|

Guitar 2:

------------------|
------------------|
------------------|
------------------|
0-0-1--3--5-5--0--| x2
------------------|

------------------|
------------------|
------------------|
------------------|
-----3-1----------|
4--4-----44-33----|

------------------|
------------------|
------------------|
------------------|
0-0-1--3--5-5--0--|
------------------|

------------------|
------------------|
------------------|
------------------|
-----3-1----------|
4--4-----44-33----|

------------------|
------------------|
------------------|
------------------|
0-0-1--3--5-5--0--|
------------------|

------------------|
------------------|
------------------|
------------------|
-----6--5--3-3----|
4-----------------|

Then repeat the intro twice during the vocals:

Murderer of mine
Why are you still here?
Do you see that Ive died...
Theres nothing more...
Murderer of mine
Youre so familiar...
Oooh
Smiling in the mirror

----------------|
----------------|
----------------|
8888888888888888|
8888888888888888| Na-na-naaaa-na
6666666666666666|

--------------------------------|
--------------------------------|
--------------------------------|
12121212121212121212121212121212|
12121212121212121212121212121212| Na-na-NAAAAA-na
10101010101010101010101010101010|

----------------|
----------------|
----------------|
6666666666666666|
6666666666666666| Na-na-naaaa-na
4444444444444444|

--------------------------------|
--------------------------------|
--------------------------------|
10101010101010101010101010101010|
 8 8 8 8 8 8 8 8 8 8 8 8 8 8 8 8| Na-na-naaaa-na
 8 8 8 8 8 8 8 8 8 8 8 8 8 8 8 8|

And that's pretty much it until the end. There's a lot going on alongside the power 
chords but I'll leave that for someone else to figure out.

Tabbed by averagejoe89
Добавлено: 13.06.2013
Вам также может быть интересно:
Другие материалы по этой песне:

Страница создана 13.06.2013
http://primanota.ru/shels/the-spirit-horse-chords.htm
Привет, Гость.
Предлагаем пройти революционный курс по гитаре.
Подарок от PrimaNota.Ru, забирай!