PrimaNota.ru - самый крупный в мире бесплатный архив песенных текстов, аккордов, табулатур и нот


Shelling - Endless Beautiful Days - таба, видео

Регистрация Запомнить меня
Войти через:  Facebook Google Twitter Vk Yandex Mail.ru

Shelling - Endless Beautiful Days - таба, видео

Печатать
Просмотров: 61
VERY easy song, but nice to play nonetheless...

e|----0--------0--------0--------0----0--0--0-------0--------0--------0--|
b|-2-----2--2-----2--2-----2--2-------2--------2-2-----2--2-----2--2-----|
G|-2--------2--------2--------2-------2----------2--------2--------2-----|
D|-0--------2--------0--------2-------0----------2--------0--------2-----|
A|----------0-----------------0------------------0-----------------0-----|
E|-----------------------------------------------------------------------|

Then repeat this for the rest of the song.

e|---------------------------------|
b|-2-2-2-2-2-2-2-2-2-2-2-2-2-2-2-2-|
G|-2-2-2-2-2-2-2-2-2-2-2-2-2-2-2-2-|
D|-0-0-0-0-0-0-0-0-2-2-2-2-2-2-2-2-|
A|-----------------0-0-0-0-0-0-0-0-|
E|---------------------------------|
Добавлено: 15.08.2015
Другие материалы по этой песне:
  • Аккорды и текст

Страница создана 15.08.2015
http://primanota.ru/shelling/endless-beautiful-days-chords.htm
Привет, Гость.
Предлагаем пройти революционный курс по гитаре.
Подарок от PrimaNota.Ru, забирай!