PrimaNota.ru - самый крупный в мире бесплатный архив песенных текстов, аккордов, табулатур и нот


Shellac - Squirrel Song - аккорды и текст, видео

Регистрация Запомнить меня
Войти через:  Facebook Google Twitter Vk Yandex Mail.ru

Shellac - Squirrel Song - аккорды и текст, видео

Печатать
Просмотров: 137
Squirrel Song
Shellac
Band: Shellac
Song: Squirrel Song
Album: 1000 Hurts

davidgiglio@hotmail.com for mistakes
tabbed by D Giglio

g--0-1-1h3-p1-p0--

slide all through this next part (part 2) =20

d--2-0-2-3-2-0-2-3-5-7-7---2-0-2-3-2-0-2-3-5-3--
a--2-0-2-3-2-0-2-3-5-7-7---2-0-2-3-2-0-2-3-5-3--

the middle part

d---------------------
a-------0-1-3-3-2-----
E-0-1-3-----------0---

the above a few times then

d-----------------2--2-2-----
a-------0-1-3-3-2-2--2-2-----
E-0-1-3-----------0--0-0-----

then

g-----------0-1-1h3-p1-p0--------
d-2-2-2-2-2----------------------
a-2-2-2-2-2----------------------
E-0-0-0-0-0----------------------

then back to part 2
     
Добавлено: 31.10.2013
Другие материалы по этой песне:
  • Аккорды и текст

Страница создана 22.03.2012
http://primanota.ru/shellac/squirrel-song-chords.htm
Привет, Гость.
Предлагаем пройти революционный курс по гитаре.
Подарок от PrimaNota.Ru, забирай!