PrimaNota.ru - самый крупный в мире бесплатный архив песенных текстов, аккордов, табулатур и нот


Shellac - Song of the minerals - бас-таба, видео

Регистрация Запомнить меня
Войти через:  Facebook Google Twitter Vk Yandex Mail.ru

Shellac - Song of the minerals - бас-таба, видео

Печатать
Просмотров: 88


(00:32-3:27)

G-------------------------------
D-------------------------------
A-------------------------------
E-7-7-7-7-2-2-2-2-3-3-3-3-5-5-5-

G-------------------------------
D-------------------------------
A-------------------------------
E-7-7-7-7-2-2-2-2-3-3-3-3-0-0-0-

(3:27-3:54)

G-----
D-----
A-----
E-7/2-

(3.54-4:07)

G---------------------------------
D---------------------------------
A---------------------------------
E-7-7-7-7-2-2-2-2-3-3-3-3-5-5-5-5-

(4:07-end)

G--------------------------------------
D--------------------------------------
A--------------------------------------
E-7-7-7-7-8-8-8-8-10-10-10-10-12-12-12-



Добавлено: 23.10.2013
Другие материалы по этой песне:
  • Аккорды и текст

Страница создана 23.10.2013
http://primanota.ru/shellac/song-of-the-minerals-chords.htm
Привет, Гость.
Предлагаем пройти революционный курс по гитаре.
Подарок от PrimaNota.Ru, забирай!