PrimaNota.ru - самый крупный в мире бесплатный архив песенных текстов, аккордов, табулатур и нот


Shellac - Song Against Itself - таба, видео

Регистрация Запомнить меня
Войти через:  Facebook Google Twitter Vk Yandex Mail.ru

Shellac - Song Against Itself - таба, видео

Печатать
Просмотров: 41
Уроки эстрадного вокала в Санкт-Петербурге
-------------------------------------------------------------------------------
                        SHELLAC - SONG AGAINST ITSELF
-------------------------------------------------------------------------------

tabbed on the go by a bored 18yo teenager.

0:10
intro part aka what steve plays when the bass comes in
e|---------------------------------------------------------------------------|
B|---------------------------------------------------------------------------|
G|---------------------------------------------------------------------------|
D|-2-3--2-2-0----------------------------------------------------------------|
A|-------3---3-0-------------------------------------------------------------|
E|---------------------------------------------------------------------------|

0:45
heating up
e|---------------------------------------------------------------------------|
B|---------------------------------------------------------------------------|
G|---------------------------------------------------------------------------|
D|-------2-2-----------------------------------------------------------------|
A|-5\--5\---5\4~---5\--------------------------------------------------------|
E|---------------------------------------------------------------------------|

2:10
i've already had it up with this bassline
e|-----------------x-------------------x-------------------------------------|
B|-----------------x-------------------x-------------------------------------|
G|-----------------7-------------------7-------------------------------------|
D|------2-0---2-0- 7--------2-0---2-0--7-------------------------------------|
A|-5-0-3---0-3-----5---5-0-3---0-3-----5-------------------------------------|
E|-----------------x-------------------x-------------------------------------|
      play 4x


3:04
outro - to be tabbed 


************************************

| /   slide up
| \   slide down
| h   hammer-on
| p   pull-off
| ~   vibrato
| +   harmonic
| x   Mute note
| b   Bend
| pb  Pre-bend
| br  Bend release
| pbr Pre-bend release
| brb Bend release bend

************************************
Добавлено: 31.12.2015
Другие материалы по этой песне:
  • Аккорды и текст

Страница создана 30.12.2015
http://primanota.ru/shellac/song-against-itself-chords.htm
Привет, Гость.
Предлагаем пройти революционный курс по гитаре.
Подарок от PrimaNota.Ru, забирай!